Oops, an error
Loading. Please wait.

Bite The Bullet Bass Tab

version 2
version 2

Whole song

266 views 1 this week
no commentswrite comment
1 2 3 4 5
please rate
add to favorites
launch autoscroll
font size
0
reset
guitar tuner
Tab Pro tools
  • play this tab
  • loop segment
  • change instrument
  • show fretboard
  • metronome
Autoscroll
slow
fast
+/-
esc
set tempo
stop
Contributor
Difficulty
intermediate
Intro/Verse
G|---------------------------------------| 
D|--------------------22-33-55-33-22-----|
A|-----------------3-----------------33--|
E|-3333-111111---------------------------|

Chorus
G|------------------------------------------------------------------|
D|-------------------33333333---------------------------------------|
A|-33333333-55555555-------------------------32222000000------------|
E|----------------------------33333333-------------------32222000000|

Chorus(con't)
G|------------------------------|
D|-33333-00-320-----------------|
A|--------------233233233333----|
E|------------------------------|

Outro
G|--------------------------------------------------------------|
D|-------------------33333333-----------------------------------|
A|-33333333-55555555--------------------32222000000-------------|
E|----------------------------33333333--------------32222000000-|

Outro(con't)
G|-------------------------------------------|
D|-33333-00-320--33333-00-320-33333-00-320---|
A|-----------------------------------------3-|(let last note ring)
E|-------------------------------------------|



Intro  x4
Chorus x2
Intro  x4
Chorus x2
Intro  x4
Chorus 
Outro
comments
We did not receive enough feedback on this tab! Please rate:
print report bad tab
1 2 3 4 5
I want to post or [tab]
guest
You may want to rate the tab now too:
select rating
Please do not post tabs as comments. Select "correction" instead!