Oops, an error
Loading. Please wait.

Just Like Clockwork Bass Tab

2,281 views 1 this week
4 commentsread comments
1 2 3 4 5
1 last vote to show rating
add to favorites
launch autoscroll
font size
0
reset
guitar tuner
Autoscroll
slow
fast
+/-
esc
set tempo
stop
Help us to improve Ultimate-Guitar.com Take our survey!
×
Author
Difficulty
intermediate
   intro/verse
G|----------------------------------45754-| x3
D|---9-6--7-4-------5-4---6-7--4-55-------|
A|-7----5-------4-5----7-7---5------------|
E|------------5---------------------------|
   chorus
G|--------------------| x4
D|--------------------|
A|-777777-33----------|
E|-----------55555555-|

intro/verse
G|----------------------------------45754-| x2
D|---9-6--7-4-------5-4---6-7--4-55-------|
A|-7----5-------4-5----7-7---5------------|
E|------------5---------------------------|

chorus
G|--------------------| x6
D|--------------------|
A|-777777-33----------|
E|-----------55555555-|

intro/verse
G|----------------------------------45754-| x2
D|---9-6--7-4-------5-4---6-7--4-55-------|
A|-7----5-------4-5----7-7---5------------|
E|------------5---------------------------|

chorus
G|--------------------| x4
D|--------------------|
A|-777777-33----------|
E|-----------55555555-|

intro/verse
G|----------------------------------45754-| x2
D|---9-6--7-4-------5-4---6-7--4-55-------|
A|-7----5-------4-5----7-7---5------------|
E|------------5---------------------------|

chorus
G|--------------------| x6
D|--------------------|
A|-777777-33----------|
E|-----------55555555-|

intro/verse
G|----------------------------------45754-| x4
D|---9-6--7-4-------5-4---6-7--4-55-------|
A|-7----5-------4-5----7-7---5------------|
E|------------5---------------------------|
Suggest correction
Give kudos to tab author, rate the tab!
1 2 3 4 5
comments
print report bad tab
4 comments total. Showing first comments.
0 reply
guitarscyco123 37 Feb 24, 2006 11:52 AM

this tab kicks ass

0 reply
Orange~Love 37 Jul 23, 2006 08:46 PM

this band kicks ass

0 reply
{InfideL} 10 Mar 30, 2008 08:32 AM

great tab!

guest
You may want to rate the tab now too:
select rating
Wanna post a correction for this tab? Suggest correction