Oops, an error
Loading. Please wait.

No Doves Fly Here Tab

696 views 6 this week
no commentswrite comment
1 2 3 4 5
accurate
x 3
add to favorites
launch autoscroll
font size
0
reset
how to read this tab
guitar tuner
Tab Pro tools
  • play this tab
  • loop segment
  • change instrument
  • show fretboard
  • metronome
Autoscroll
slow
fast
+/-
esc
set tempo
stop
Contributor
Difficulty
novice
                             No Doves Fly Here
                             Lower Class Brats

Chorus
e|------------------------------------------|
B|7-7777-7----------------------10----------|
G|7-7777-7-7-77-7-8-9--9-9-9-9--10-x-9------|
D|7-7777-7-8-88-8-9-10-10101010-10-x-10-----|
A|5-5555-5-8-88-8-9-10-10101010-8--x-10-----|
E|---------6-66-6-7-8--8-8-8-8-----x-8------|
pm  ....     ..        . . . . 

Bridge
e|------------------------------------------|
B|------------------------------------------|
G|4-444-44-4-44-----------------------------|
D|5-555-55-5-55-----------------------------|
A|5-555-55-5-55-----------------------------|
E|3-333-33-3-33-----------------------------|
pm  ...

Verse
e|------------------------------------------|
B|7-7--7----------10-10--10-----------------|
G|7-7--7-7-777777-10-10--10-9--9-9-9-9-9-9--|
D|7-7--7-8-888888-10-10--10-10-101010101010-|
A|5-5--5-8-888888-8--8---8--10-101010101010-|
E|-------6-666666-----------8--8-8-8-8-8-8--|
pm         ......              . . . . . . 

Solo
e|----------------------------------------------|
B|----------------------------------------------|
G|10-9-7--10-10-9-7--10-10--10-10-10-9-9-9-10-9-|(x2)
D|----------------------------------------------|
A|----------------------------------------------|
E|----------------------------------------------|

e|-------------------------------------------------------|
B|-------------------------------------------------------|
G|/14-14-14p12-15-15-15p14p12-17-17-17p15p12-12-12-14-12-|
D|-------------------------------------------------------|
A|-------------------------------------------------------|
E|-------------------------------------------------------|

e|----------------------------------------------|
B|----------------------------------------------|
G|14-14-14p12-15-15-15p14p12-17-17-17b19-17-----|
D|----------------------------------------------|
A|----------------------------------------------|
E|----------------------------------------------|

Interlude
e|----------------|
B|5--7--77--------|
G|5--7--77-7--9---|
D|5--7--77-8--10--|
A|3--5--55-8--10--|
E|---------6--8---|
pm      ..


ORDER

Chorus(x4)
Bridge
Verse(x4)
Chorus(x4)
Bridge
Verse(x4)
Chorus(x4)
Bridge
Verse(x4)/Solo
Chorus(x2)
Bridge
Interlude(x4)
Chorus(x4)

KEY

pm = Palm muting
/  = Slide
p  = Pull off
b  = Bend
comments
We did not receive enough feedback on this tab! Please rate:
print report bad tab
1 2 3 4 5
I want to post or [tab]
guest
You may want to rate the tab now too:
select rating
Please do not post tabs as comments. Select "correction" instead!