Oops, an error
Loading. Please wait.

Start The Night Tab

152 views 1 this week
no commentswrite comment
1 2 3 4 5
please rate
add to favorites
launch autoscroll
font size
0
reset
how to read this tab
guitar tuner
Autoscroll
slow
fast
+/-
esc
set tempo
stop
Help us to improve Ultimate-Guitar.com Take our survey!
×
Author
                                Lower Class Brats
                                 Start the Night

Intro
e|----------------------------------------------------------------------------------------------|
B|-13/14--14-14---13/14--14-14---13/14--14-14--14---13/14--14-14---13/14-14---------------------|
G|-13/14--14-14---13/14--14-14---13/14--14-14--14---13/14--14-14---13/14-14---13-13-13-13-13-13-|
D|-13/14--14-14---13/14--14-14---13/14--14-14--14---13/14--14-14---13/14-14---14-14-14-14-14-14-|
A|-11/12--12-12---11/12--12-12---11/12--12-12--12---11/12--12-12---11/12-12---14-14-14-14-14-14-|
E|----------------------------------------------------------------------------12-12-12-12-12-12-|

Verse
e|--------------------------------------------------------------------------------|
B|-9-xx-9-xx-9-xx-9-12-----------------------------------------7-9-99-9--8/9-99-9-|
G|-9-xx-9-xx-9-xx-9-12-4-xx-4-xx-4-xx-4-6-9--xx-9--xx-9--xx-9--7-9-99-9--8/9-99-9-|
D|-9-xx-9-xx-9-xx-9-12-5-xx-5-xx-5-xx-5-7-10-xx-10-xx-10-xx-10-7-9-99-9--8/9-99-9-|
A|-7-xx-7-xx-7-xx-7-10-5-xx-5-xx-5-xx-5-7-10-xx-10-xx-10-xx-10-5-7-77-7--6/7-77-7-|
E|---------------------3-xx-3-xx-3-xx-3-5-8--xx-8--xx-8--xx-8---------------------|

Pre-Chorus
e|-----------------------------------------------|
B|-------------7-7--7--7---9-9--9--9-------------|
G|-6-6--6--6---7-7--7--7---9-9--9--9---6-6--6--6-|
D|-7-7--7--7---7-7--7--7---9-9--9--9---7-7--7--7-|
A|-7-7--7--7---5-5--5--5---7-7--7--7---7-7--7--7-|
E|-5-5--5--5---------------------------5-5--5--5-|
pm . .  .  .   . .  .  .   . .  .  .   . .  .  .

Chorus
e|-----------------------------------------------|
B|-------------7--7-7--7---9--9-9--9-------------|
G|-6--6-6--6---7--7-7--7---9--9-9--9---6--6-6--6-|
D|-7--7-7--7---7--7-7--7---9--9-9--9---7--7-7--7-|
A|-7--7-7--7---5--5-5--5---7--7-7--7---7--7-7--7-|
E|-5--5-5--5---------------------------5--5-5--5-|

Solo
e|------------------------------------------------------------------------------|
B|---------------------------------------------------/12--12-12\-/12--12-12\----|
G|---------------------------/12--12-12\-/12--12-12\----------------------------|
D|--/14--14-14\--/14--14-14\----------------------------------------------------|
A|------------------------------------------------------------------------------|
E|------------------------------------------------------------------------------|

------12-12-12-12-12-12-12-12-12----12-12-12-12-12-12-|
------12-12-12-12-12-12-12-12-12----12-12-12-12-12-12-|
------------------------------14b16-------------------|
------------------------------------------------------|
------------------------------------------------------|
------------------------------------------------------|

ORDER
Intro(2)
Verse(2)
Pre-Chorus(2)
Chorus(2)
Intro(2)
Verse(2)
Pre-Chorus(2)
Chorus(2)
Intro(2)
Verse/Solo(2)
Pre-Chorus(2)
Chorus(2)
Intro(2)
Verse(2)
Chorus(4)
Intro(2)

KEY
pm = Palm Mute
/  = Slide Up
x  = Mute Note
Suggest correction
Give kudos to tab author, rate the tab!
1 2 3 4 5
comments
print report bad tab
guest
You may want to rate the tab now too:
select rating
Wanna post a correction for this tab? Suggest correction