Oops, an error
Loading. Please wait.

Pueblo Cicada Bass Tab

version 1
version 1

Whole song

1,294 views 3 this week
no commentswrite comment
1 2 3 4 5
please rate
add to favorites
launch autoscroll
font size
0
reset
guitar tuner
Autoscroll
slow
fast
+/-
esc
set tempo
stop
Help us to improve Ultimate-Guitar.com Take our survey!
×
-------------------------------------------------------------------------------
			     Lower defintion - Pueblo Cicada
-------------------------------------------------------------------------------

Tabbed By : smokeysteve22
e-mail: dukes21_3@hotmail.com

Tuning: CGCF

'I Try to'

F|---------------------------------------------------------------------------|
C|---------------------------------------------------------------------------|
G|---------------------------------------------------------------------------|
C|-1-1-1--1-1-1----1-1-1--1-1-1----------------------------------------------| 

'Staggering men...'

F|---------------------------------------------------------------------------|
C|---------------------------------------------------------------------------|
G|---------------------------------------------------------------------------|
C|---/-`5-5-5--55-55-55-55-5 x2 -1-1-1-11-11-11-X2-| x4

'Clearly i can...'

G|---------------------------------------------------------------------------|
D|---------------------------------------------------------------------------|
A|---------------------------------------------------------------------------|
E|--5-5-5-5-5-5-5-5-8-8-8-8-8-8-8-8-1-1-1--1-1-------------------------------|

'And it kills me to watch you..'

G|---------------------------------------------------------------------------|
D|---------------------------------------------------------------------------|
A|----------------------------------------------------------------------x2---|
E|--5-5-5-5-5-5-5-5-58-8-8-8-8-8-8-8--1-1-1-1-1-1-1-1-1-1-1-1-1-1------------|

'and you just turn away'

G|---------------------------------------------------------------------------|
D|---------------------------------------------------------------------------|
A|---3-3-3-3-3-3-3-----------------------------------------------------------|
E|-----------------5-5-5-5-5-5-5--1~-----------------------------------------|

'You looked back..'

G|---------------------------------------------------------------------------|
D|---------------------------------------------------------------------------|
A|--3-3-3-------------------------------------------------x2-----------------|
E|---------000000---5-5-5---000000--1-1-1-1-1-1-1----------------------------|

'But youu still blame us'

G|---------------------------------------------------------------------------|
D|---------------------------------------------------------------------------|
A|--3-3-3-3-3-3-3------------------------3-----------------------------------|
E|----------------5-5-5-5-5-5-5--------------5--1----------------------------|

'and i cant stand to watch you...'

G|---------------------------------------------------------------------------|
D|---------------------------------------------------------------------------|
A|-----------------------------3-3-3-3-3-3-3-3-3-3-3-x3----then--------------|
E|------1-1-1-1-1-1--5-5-5-5-5-----------------------------------------------|

'Slipping under this sound again'

G|---------------------------------------------------------------------------|
D|---------------------------------------------------------------------------|
A|-------------------------------------------3-------------------------------|
E|--1-1-1-1-1-1-1-1-5-5-5-5-5-5-5---10-0-1-3---5-1---------------------------|

'I try to...'

G|---------------------------------------------------------------------------|
D|---------------------------------------------------------------------------|
A|---------------------------------------------------------------------------|
E|--5--8--1-----5-8-1-------/5-5-5-5-5-5-8-8-8-8-8-8-1-1-1-1-1-1-1-x4\-------|

You work out this bit the count is only estimates.

'Of the city falling underground'

G|---------------------------------------------------------------------------|
D|-----------THE COUNT IS ONLY ESTIMATES-------------------------------------|
A|---------------------------------------------------------------------------|
E|----55555-555555555555-x2--1111---111111--11111111--11111-----111----------|

Jonny craig.. part

G|---------------------------------------------------------------------------|
D|------------THE COUNT IS ONLY ESTIMATES------------------------------------|
A|---------------------------------------------------------------------------|
E|----55555-555555555555-0 0 0 -1111--111111--1111--0-0-0--11111-1111-111----|


G|---------------------------------------------------------------------------|
D|---------------------------------------------------------------------------|
A|-----------3-------------3-------------------------------------------------|
E|--10-0-1-3------10-0-1-3---------------------------------------------------|

'You looked back but you we're never the same'

G|---------------------------------------------------------------------------|
D|---------------------------------------------------------------------------|
A|---3-----------------3-3-3-------------------------------------------------|
E|------5----1---------------------------------------------------------------|

'the city is burning...'

G|---------------------------------------------------------------------------|
D|---------------------------------------------------------------------------|
A|--3-3-3------------------------------------------------------------x4------|
E|---------000000---5-5-5---000000--1-1-1-000000-----------------------------|

'Outro'

G|---------------------------------------------------------------------------|
D|---------------------------------------------------------------------------|
A|---3-----------------------------------------------------------------------|
E|------5----1---------------------------------------x4----------------------|




| /  slide up
| \  slide down
| h  hammer-on
| p  pull-off
| ~  vibrato
| +  harmonic
| x  Mute note
===============================================================================
Suggest correction
Give kudos to tab author, rate the tab!
1 2 3 4 5
comments
print report bad tab
guest
You may want to rate the tab now too:
select rating
Please do not post tabs as comments. Select "correction" instead!