Oops, an error
Loading. Please wait.

Pueblo Cicada Bass Tab

version 2
version 2

Whole song

462 views 1 this week
no commentswrite comment
1 2 3 4 5
3 more votes to show rating
add to favorites
launch autoscroll
font size
0
reset
guitar tuner
Autoscroll
slow
fast
+/-
esc
set tempo
stop
Help us to improve Ultimate-Guitar.com Take our survey!
×
Author
Difficulty
Tuning
novice
C# G# C# F# A# D#
Lower Definition
Pueblo Cicada

Dropped C#

This is how i play it. The notes are right, you figure out the rhythm. The only part i'm not
sure about is the fill when he sings, "But you still blame us like we did this." Thats what
i hear but idk...


http://www.youtube.com/watch?v=3qkmtjfJbWM that is me playing this tab


F#:-----------------------|  x4
C#:-----------------------|
G#:-----------------------|
C#:-0~00~~----------------|


  "Staggering man,..."
F#:----------------------------------------------------------------------------------|
C#:----------------------------------------------------------------------------------|
G#:----------------------------------------------------------------------------------|
C#:-4~44-44-44-4-444444-4~44-44-44-4-444444-0~00-00-00-0-000000-0~00-00-00-0-000000--|

  "We tried to pick up all the pieces..."
F#:-----------------------------------------------------------------------------|
C#:-----------------------------------------------------------------------------|
G#:-----------------------------------------------------------------------------|
C#:-4~44-44-4444444444-4~44-44-4444444444-0~00-00-0000000000-0~00-00-0-0-0-0-0--|


  "Clearly I could see you giving up..."
F#:---------------------------------|
C#:---------------------------------|
G#:--------000000000----------------|
C#:-4444444---------0~0~0~--0~0~0~--|

  "And it kills me to watch you..."
F#:-----------------------------------|
C#:-----------------------------------|
G#:---------00000000------------------|
C#:-44444444--------0000000000000000--|

  "You just turned away."
F#:----------------------|
C#:----------------------|
G#:-22222222-------------|
C#:---------444444440~~--|


  "You looked back..."
F#:-----------------------------------------------------------|  x3
C#:-----------------------------------------------------------|
G#:-2-2-2-222222----------------------------------------------|
C#:-------------4-4-4-4444440-0-0-0-0-0-0-0-0-0-0-0-00000000--|

  "But you..."
F#:--------------------------------------|
C#:--------------------------------------|
G#:-4020--02------------------2~---------|
C#:-----40--444444440~~----------4~-0~~--|


  "And I cant to watch you turn away..."
F#:-----------------------------------|  x3
C#:-----------------------------------|
G#:-----------------2222222222222222--|
C#:-0000000044444444------------------|

  "Slipping under the sound again..."
F#:--------------------------------|
C#:--------------------------------|
G#:-----------------2~-------------|
C#:-0000000044444444--0~1~2~4-0~~--|


  "I tried to hear the way it sounded..."
F#:---------------------------------------------------|  x2
C#:---------------------------------------------------|
G#:---------------------------------------------------|
C#:-4-4-4-4-4-4-4-4-7-7-7-7-7-7-7-7\-0-0-0-0-0-0-0-0--|

  "Spilled across the floor..."
F#:-------------------------------------------------------------------|  x2
C#:-------------------------------------------------------------------|
G#:-------------------------------------------------------------------|
C#:-444444444-444444777777777-777777000000000-000000000000000-000000--|


  "Of the city falling under ground..."
F#:---------------|  x4
C#:---------------|
G#:---------------|
C#:-44444-444444--|

F#:---------------|  x4
C#:---------------|
G#:---------------|
C#:-00000-000000--|

  "You can stop your self..."
F#:---------------------------------|
C#:---------------------------------|
G#:--------------------------0-0-0--|
C#:-44444-44444444444-444444--------|

F#:---------------|  x2
C#:---------------|
G#:---------------|
C#:-44444-444444--|

F#:----------------------------------|
C#:----------------------------------|
G#:----------------------------------|
C#:-00000-000000-00000-000000-0-0-0--|

F#:---------------|  x2
C#:---------------|
G#:---------------|
C#:-00000-000000--|

F#:-------------|  x2
C#:-------------|
G#:-2~----------|
C#:----0~1~2~4--|


  "Cause you said that..."
F#:---------------------------|
C#:---------------------------|
G#:---------------------------|
C#:-777\-------------0000000--|

  "While the city is burning..."
F#:---------------------------------------------------------|  x4
C#:---------------------------------------------------------|
G#:-2-2-2-222222--------------------------------------------|
C#:-------------4-4-4-4444440-0-0-0-000000-0-0-0-000000000--|

  "The shadow takes our lives..."
F#:-----------|  x2
C#:-----------|
G#:-2~--------|
C#:----0~2~~--|

  "Takes our lives..."
F#:------------------------------------------------------|
C#:------------------------------------------------------|
G#:---------00000000------------------------00000000-----|
C#:-44444444--------000000000000000044444444--------0~~--|
Suggest correction
Give kudos to tab author, rate the tab!
1 2 3 4 5
comments
print report bad tab
guest
You may want to rate the tab now too:
select rating
Wanna post a correction for this tab? Suggest correction