Oops, an error
Loading. Please wait.

Through The Back Of A Witness Bass Tab

45 views 1 this week
no commentswrite comment
1 2 3 4 5
please rate
add to favorites
launch autoscroll
font size
0
reset
guitar tuner
Tab Pro tools
  • play this tab
  • loop segment
  • change instrument
  • show fretboard
  • metronome
×
Best way to learn
"Through The Back Of A Witness"
Autoscroll
slow
fast
+/-
esc
set tempo
stop
Contributor
-------------------------------------------------------------------------------
			     Lower Defintion - Through the back of a witness
-------------------------------------------------------------------------------

Tabbed By : Smokeysteve22
e-mail: dukes21_3@hotmail.com

Great song Enjoy.

Tuning: CGCF

Intro.. 			    'We are surrounded..'

F|-----------------------------------------------DIFF PATTERN AFTER X4-------|
C|---------------------------------------------------------------------------|
G|---------------------------------------------------------------------------|
C|---4---/slide to 4\--------------4-4-4-4-7-7-7-7-0-0-0-0-2-2-2-2--x8-------|

'Sound off the...'				

F|---------------------------------------------------------------------------|
C|---------------------------------------------------------------------------|
G|---------------------------------------------------------------------------|
C|---4-4-4--4--4-4-4--44-4-4-4--4--x4----THEN----7---0-----------------------|

'Watch...'

F|---------------------------------------------------------------------------|
C|---------------------------------------------------------------------------|
G|---------------------------------------------------------------------------|
C|---4-4-4-4-7-7-7-7-0-0-0-0-2-2-2-2----x4-----------------------------------|

...'Right infront of you...'

F|---------------------------------------------------------------------------|
C|---------------------------------------------------------------------------|
G|---------------------------------------------------------------------------|
C|---4-4-4-000-0-22-2-2-2--4-4-4-000-0-22-2-2-2-x4---------------------------|

Wkd guitar riff bit.

F|---------------------------------------------------------------------------|
C|---------------------------------------------------------------------------|
G|---------------------------------------------------------------------------|
C|---4---7---0-----------4-4-4-4-7-7-7-7-0-0-0-0-0-0-0-0-0-0-0-0-0--x4-------|

'With our pockets filled with ammo....we rule..'

F|---------------------------------------------------------------------------|
C|---------------------------------------------------------------------------|
G|---------------------------------------------------------------------------|
C|---4-4-000-2-222-222-222-222--4-4-222-222-222-222--x4----------------------|

Outro

F|---------------------------------------------------------------------------|
C|---------------------------------------------------------------------------|
G|---------------------------------------------------------------------------|
C|---4-----7-----0-----------------------------------------------------------|


| /  slide up
| \  slide down
| h  hammer-on
| p  pull-off
| ~  vibrato
| +  harmonic
| x  Mute note
===============================================================================
comments
We did not receive enough feedback on this tab! Please rate:
print report bad tab
1 2 3 4 5
I want to post or [tab]
guest
You may want to rate the tab now too:
select rating
Please do not post tabs as comments. Select "correction" instead!