Oops, an error
Loading. Please wait.

A/s/l? Tab

251 views 1 this week
no commentswrite comment
1 2 3 4 5
3 more votes to show rating
add to favorites
launch autoscroll
font size
0
reset
how to read this tab
guitar tuner
×
Best way to learn
"A/s/l?"
Autoscroll
slow
fast
+/-
esc
set tempo
stop
Difficulty
Tuning
intermediate
D A D G B E
------------------------  LOWER THAN ATLANTIS-------------------
                               A/S/L? - Main Riff

Tuning:Drop D

INTRO
e|---------------------------------------|
B|---------------------------------------|
G|---------------------------------------|
D|--------------------3----0------3------|
A|-------0---4-1-------0-1---0-----------|
D|-0-2-3---0-----0--4-----------5--------| 

e|-----------------------------------------------------|
B|-----------------------------------------------------|
G|-----------------------------------------------------|
D|--------------------3----0------3--------------------|
A|-------0---4-1-------0-1---0------------10-----11----|
D|-0-2-3---0-----0--4-----------5----0-7-----0-8-------| 

e|---------------------------------------|
B|---------------------------------------|
G|---------------------------------------|
D|--------------------3----0------3------|
A|-------0---4-1-------0-1---0-----------|
D|-0-2-3---0-----0--4-----------5--------| 

e|---------------------------------------|
B|---------------------------------------|
G|---------------------------------------|
D|-----------------4------------1--------|
A|-------0---4-1-0-4------------1--------|
D|-0-2-3---0-------4------------1--------| 




Suggest correction
Give kudos to tab author, rate the tab!
1 2 3 4 5
comments
print report bad tab
guest
You may want to rate the tab now too:
select rating
Wanna post a correction for this tab? Suggest correction