Oops, an error
Loading. Please wait.

Deadliest Catch tab

version 3
version 3

Whole song

497 views 3 this week
no commentswrite comment
1 2 3 4 5
1 last vote to show rating
add to favorites
×
Save as Personal and add changes to this tab that will be seen only by you. Learn more ›
×
You can save this tab as Personal to edit and correct it or add notes. All changes will be seen only by you. Learn more »
launch autoscroll
font size
0
reset
how to read this tab
guitar tuner
edit
Autoscroll
slow
fast
+/-
esc
set tempo
stop
-------------------------------------------------------------------------------
                    Deadliest Catch - Lower Than Atlantis
-------------------------------------------------------------------------------
Tabbed by: Sam Lyons
E-mail: sam.lyons0@hotmail.com

Tuning: Drop D (DADGBe)

Intro:
e|----------------------------------------------------------------------------|
B|----------------------------------------------------------------------------|
G|----------------------------------------------------------------------------|
D|-------2----2--------2----2-----------2----2--------2----0--2--5------------|
A|------------------------------------------------------------------3---------|
E|-2--3----------0--0----------0--2--3----------0--0--------------------------|

e|----------------------------------------------------------------------------|
B|----------------------------------------------------------------------------|
G|----------------------------------------------------------------------------|
D|-------2----2--------2----2-----------2----2--------------------------------|
A|----------------------------------------------------------------------------|
E|-2--3----------0--0----------0--2--3----------0--0--------------------------| x2

Verse:
e|---------------------------------------------------------------------------------------------------|
B|---------------------------------------------------------------------------------------------------|
G|---------------------------------------------------------------------------------------------------|
D|-3--3--3--3--3--3--3--3--0--0--0--0--0--0--0--0--3--3--3--3--3--3--3--3--0--0--0--0--5--5--5--5----|
A|-3--3--3--3--3--3--3--3--0--0--0--0--0--0--0--0--3--3--3--3--3--3--3--3--0--0--0--0--5--5--5--5----|
E|-3--3--3--3--3--3--3--3--0--0--0--0--0--0--0--0--3--3--3--3--3--3--3--3--0--0--0--0--5--5--5--5----|

e|---------------------------------------------------------------------------------------------------|
B|---------------------------------------------------------------------------------------------------|
G|---------------------------------------------------------------------------------------------------|
D|-3--3--3--3--3--3--3--3--0--0--0--0--0--0--0--0--3--3--3--3--3--3--3--3--0--0--0--0--5--5--5--5----|
A|-3--3--3--3--3--3--3--3--0--0--0--0--0--0--0--0--3--3--3--3--3--3--3--3--0--0--0--0--5--5--5--5----|
E|-3--3--3--3--3--3--3--3--0--0--0--0--0--0--0--0--3--3--3--3--3--3--3--3--0--0--0--0--5--5--5--5----|

Pre Chorus:
e|---------------------------------------------------------------------------|
B|---------------------------------------------------------------------------|
G|-9--9--9--7--9--9--9--7--9--9--9--14--14--14--14--14--14-------------------|
D|---------------------------------------------------------------------------|
A|-7--7--7--5--7--7--7--5--7--7--7--12--12--12--12--12--12-------------------|
E|---------------------------------------------------------------------------|x3

e|---------------------------------------------------------------------------|
B|---------------------------------------------------------------------------|
G|---------------------------------------------------------------------------|
D|-9--9--9--7--9--9--9-------------------------------------------------------|
A|-7--7--7--5--7--7--7--6--6--6--6--6--6--6--6-------------------------------|
E|---------------------------------------------------------------------------|

Chorus:
e|-----------------------------------------------------------------------------------|
B|-----------------------------------------------------------------------------------|
G|-------------------5---5--5---5--5--5----------------------------------------------|
D|-7---7---7--7--7---5---5--5---5--5--5---3---3--3---3--3--3--3----2----3----5--5----|
A|-7---7---7--7--7---3---3--3---3--3--3---3---3--3---3--3--3--3----2----3----5--5----|
E|-7---7---7--7--7------------------------3---3--3---3--3--3--3----2----3----5--5----|

e|-----------------------------------------------------------------------------------|
B|-----------------------------------------------------------------------------------|
G|-------------------5---5--5---5--5--5----------------------------------------------|
D|-7---7---7--7--7---5---5--5---5--5--5---3---3--3---3--3--3--3----------------------|
A|-7---7---7--7--7---3---3--3---3--3--3---3---3--3---3--3--3--3----10-10-10-10-9--9--|
E|-7---7---7--7--7------------------------3---3--3---3--3--3--3----8--8--8--8--7--7--| x2


Bass Fill


e|---------------------------------------------------------------------------------|
B|---------------------------------------------------------------------------------|
G|---------------------------------------------------------------------------------|
D|-0--0---0----2-------------------------------------------------------------------|
A|-0--0---0------------------------------------------------------------------------|
E|-0--0---0------------------------------------------------------------------------|


Verse:
e|---------------------------------------------------------------------------------------------------|
B|---------------------------------------------------------------------------------------------------|
G|---------------------------------------------------------------------------------------------------|
D|-3--3--3--3--3--3--3--3--0--0--0--0--0--0--0--0--3--3--3--3--3--3--3--3--0--0--0--0--5--5--5--5----|
A|-3--3--3--3--3--3--3--3--0--0--0--0--0--0--0--0--3--3--3--3--3--3--3--3--0--0--0--0--5--5--5--5----|
E|-3--3--3--3--3--3--3--3--0--0--0--0--0--0--0--0--3--3--3--3--3--3--3--3--0--0--0--0--5--5--5--5----|

e|---------------------------------------------------------------------------------------------------|
B|---------------------------------------------------------------------------------------------------|
G|---------------------------------------------------------------------------------------------------|
D|-3--3--3--3--3--3--3--3--0--0--0--0--0--0--0--0--3--3--3--3--3--3--3--3--0--0--0--0--5--5--5--5----|
A|-3--3--3--3--3--3--3--3--0--0--0--0--0--0--0--0--3--3--3--3--3--3--3--3--0--0--0--0--5--5--5--5----|
E|-3--3--3--3--3--3--3--3--0--0--0--0--0--0--0--0--3--3--3--3--3--3--3--3--0--0--0--0--5--5--5--5----|


Pre Chorus:
e|---------------------------------------------------------------------------|
B|---------------------------------------------------------------------------|
G|-9--9--9--7--9--9--9--7--9--9--9--14--14--14--14--14--14-------------------|
D|---------------------------------------------------------------------------|
A|-7--7--7--5--7--7--7--5--7--7--7--12--12--12--12--12--12-------------------|
E|---------------------------------------------------------------------------|x3

e|---------------------------------------------------------------------------|
B|---------------------------------------------------------------------------|
G|---------------------------------------------------------------------------|
D|-9--9--9--7--9--9--9-------------------------------------------------------|
A|-7--7--7--5--7--7--7--6--6--6--6--6--6--6--6-------------------------------|
E|---------------------------------------------------------------------------|


Chorus:
e|-----------------------------------------------------------------------------------|
B|-----------------------------------------------------------------------------------|
G|-------------------5---5--5---5--5--5----------------------------------------------|
D|-7---7---7--7--7---5---5--5---5--5--5---3---3--3---3--3--3--3----2----3----5--5----|
A|-7---7---7--7--7---3---3--3---3--3--3---3---3--3---3--3--3--3----2----3----5--5----|
E|-7---7---7--7--7------------------------3---3--3---3--3--3--3----2----3----5--5----|

e|-----------------------------------------------------------------------------------|
B|-----------------------------------------------------------------------------------|
G|-------------------5---5--5---5--5--5----------------------------------------------|
D|-7---7---7--7--7---5---5--5---5--5--5---3---3--3---3--3--3--3----------------------|
A|-7---7---7--7--7---3---3--3---3--3--3---3---3--3---3--3--3--3----10-10-10-10-9--9--|
E|-7---7---7--7--7------------------------3---3--3---3--3--3--3----8--8--8--8--7--7--| x2


Instrumental
e|-12------------------|
B|----10---------------|
G|-------12------------|
D|---------------------|
A|---------------------|
E|---------------------|

Chorus:
e|-----------------------------------------------------------------------------------|
B|-----------------------------------------------------------------------------------|
G|-------------------5---5--5---5--5--5----------------------------------------------|
D|-7---7---7--7--7---5---5--5---5--5--5---3---3--3---3--3--3--3----2----3----5--5----|
A|-7---7---7--7--7---3---3--3---3--3--3---3---3--3---3--3--3--3----2----3----5--5----|
E|-7---7---7--7--7------------------------3---3--3---3--3--3--3----2----3----5--5----|

e|-----------------------------------------------------------------------------------|
B|-----------------------------------------------------------------------------------|
G|-------------------5---5--5---5--5--5----------------------------------------------|
D|-7---7---7--7--7---5---5--5---5--5--5---3---3--3---3--3--3--3----------------------|
A|-7---7---7--7--7---3---3--3---3--3--3---3---3--3---3--3--3--3----10-10-10-10-9--9--|
E|-7---7---7--7--7------------------------3---3--3---3--3--3--3----8--8--8--8--7--7--| x2

Outro:
e|----------------------------------------------------------------------------|
B|----------------------------------------------------------------------------|
G|----------------------------------------------------------------------------|
D|-------2----2--------2----2-----------2----2--------2----0--2--5------------|
A|------------------------------------------------------------------3---------|
E|-2--3----------0--0----------0--2--3----------0--0--------------------------|

e|----------------------------------------------------------------------------|
B|----------------------------------------------------------------------------|
G|----------------------------------------------------------------------------|
D|-------2----2--------2----2-----------2----2--------------------------------|
A|----------------------------------------------------------------------------|
E|-2--3----------0--0----------0--2--3----------0--0--------------------------|

************************************

| /   slide up
| \   slide down
| h   hammer-on
| p   pull-off
| ~   vibrato
| +   harmonic
| x   Mute note
| b   Bend
| pb  Pre-bend
| br  Bend release
| pbr Pre-bend release
| brb Bend release bend

************************************

            
            
Suggest correction
Creating personal tab
Creating personal tab
You can edit any tab online and save it as your Personal.

You can edit, replace or remove any tab part or add personal notes – all changes will be seen only by you.

Personal tabs can be accessed anytime from any device, even offline.
Learn more »
Give kudos to tab author, rate the tab!
1 2 3 4 5
comments
print report bad tab
guest
You may want to rate the tab now too:
select rating
Wanna post a correction for this tab? Suggest correction