Oops, an error
Loading. Please wait.

English Kids In America Acoustic tab

version 2
version 2

Whole song

871 views 6 this week
no commentswrite comment
1 2 3 4 5
1 last vote to show rating
add to favorites
×
Save as Personal and add changes to this tab that will be seen only by you. Learn more ›
×
You can save this tab as Personal to edit and correct it or add notes. All changes will be seen only by you. Learn more »
launch autoscroll
font size
0
reset
how to read this tab
guitar tuner
edit
Autoscroll
slow
fast
+/-
esc
set tempo
stop
-------------------------------------------------------------------------------
            English Kids in America Acoustic - Lower Than Atlantis
-------------------------------------------------------------------------------
(Rock Sound Studio Acoustic Version)- https://www.youtube.com/watch?v=nQt_fjzYLvo
Tabbed by: Sam Lyons
E-mail: sam.lyons0@hotmail.com

Tuning: Open D (DADF#Ad)

Intro:
e|--------------------------------------------|
B|--------------------------------------------|
G|-8----7----5------5----7----0---------------|
D|-9----7----5------5----7----0---------------|
A|-x----x----x------x----x----0---------------|
E|-9----7----5------5----7----0---------------| x3

Verse:
e|----0-----------------0---------------------|
B|----0-----------------0---------------------|
G|----8-----------------0---------------------|
D|-9-----9\7--0------2-----2/4--0-------------|
A|-x-----x-x--0------x-----x-x--0-------------|
E|-9-----9\7--0------2-----2/4--0-------------|

e|----0-----------------0---------------------|
B|----0-----------------0---------------------|
G|----8-----------------0---------------------|
D|-9-----9\7--0------2-----2/4--0-------------|
A|-x-----x-x--0------x-----x-x--0-------------|
E|-9-----9\7--0------2-----2/4--0----4--------| x2

Pre Chorus:
e|-------------------0---------------------------------------------0----12+-------------------|
B|-------------------4b5p0--------------------------------------0--0----12+-------------------|
G|-----------------------------1h3p1p0------------------------0----0----12+-------------------|
D|-9p0h9p0h9\7p0------------------------2p0h2h4p0-------0-0h2------0----12+----4--------------|
A|-9p0h9p0h9\7p0--------------------------------------2------------0----12+----5--4b5p0-------|
E|-9p0h9p0h9\7p0------------------------------------2--------------0----12+----4--------------|

e|--------------------0----------------------------------------------0-----7+-----------------|
B|--------------------4b5p0---------------------------------------0--0-----7+-----------------|
G|------------------------------1h3p1p0-------------------------0----0-----7+-----------------|
D|-9p0h9----9\7p0------------------------2p0h2h4p0--------0-0h2------0-----7+----5------------|
A|-9p0h9----9\7p0---------------------------------------2------------0-----7+----4------------|
E|-9p0h9h16p9\7p0-------------------------------------2--------------0-----7+----5------------|

Chorus:
e|--------------------------------------------|
B|--------------------------------------------|
G|-8----7----5------5----7----0---------------|
D|-9----7----5------5----7----0---------------|
A|-x----x----x------x----x----0---------------|
E|-9----7----5------5----7----0---------------| x4

Verse:
e|----0-----------------0---------------------|
B|----0-----------------0---------------------|
G|----8-----------------0---------------------|
D|-9-----9\7--0------2-----2/4--0-------------|
A|-x-----x-x--0------x-----x-x--0-------------|
E|-9-----9\7--0------2-----2/4--0-------------|

e|----0-----------------0---------------------|
B|----0-----------------0---------------------|
G|----8-----------------0---------------------|
D|-9-----9\7--0------2-----2/4--0-------------|
A|-x-----x-x--0------x-----x-x--0-------------|
E|-9-----9\7--0------2-----2/4--0----4--------| x2

Pre Chorus:
e|-------------------0---------------------------------------------0----12+-------------------|
B|-------------------4b5p0--------------------------------------0--0----12+-------------------|
G|-----------------------------1h3p1p0------------------------0----0----12+-------------------|
D|-9p0h9p0h9\7p0------------------------2p0h2h4p0-------0-0h2------0----12+----4--------------|
A|-9p0h9p0h9\7p0--------------------------------------2------------0----12+----5--4b5p0-------|
E|-9p0h9p0h9\7p0------------------------------------2--------------0----12+----4--------------|

e|--------------------0----------------------------------------------0-----7+-----------------|
B|--------------------4b5p0---------------------------------------0--0-----7+-----------------|
G|------------------------------1h3p1p0-------------------------0----0-----7+-----------------|
D|-9p0h9----9\7p0------------------------2p0h2h4p0--------0-0h2------0-----7+----5------------|
A|-9p0h9----9\7p0---------------------------------------2------------0-----7+----4------------|
E|-9p0h9h16p9\7p0-------------------------------------2--------------0-----7+----5------------|

Chorus:
e|--------------------------------------------|
B|--------------------------------------------|
G|-8----7----5------5----7----0---------------|
D|-9----7----5------5----7----0---------------|
A|-x----x----x------x----x----0---------------|
E|-9----7----5------5----7----0---------------| x4

Bridge:
e|-----------------------------------------------------------------------------------|
B|-----------------------------------------------------------------------------------|
G|-0------2------5------7------0------3~---0-----------------------------------------|
D|-0------2------5------7------0------3~---0-----------------------------------------|
A|-0------x------x------x------0------x----0-----------------------------------------|
E|-0------2------5------7------0------3~---0-----------------------------------------|

e|-----------------------------------------------------------------------------------|
B|-----------------------------------------------------------------------------------|
G|-0---0---0-0----0-0-0-0------2---2---2-2----2-2-2-2------5---5---5----5-5-5-5------|
D|-0---0---0-0----0-0-0-0------2---2---2-2----2-2-2-2------5---5---5----5-5-5-5------|
A|-0---0---0-0----0-0-0-0------x---x---x-x----x-x-x-x------x---x---x----x-x-x-x------|
E|-0---0---0-0----0-0-0-0------2---2---2-2----2-2-2-2------5---5---5----5-5-5-5------|

e|-----------------------------------------------------------------------------------|
B|-----------------------------------------------------------------------------------|
G|-7---7---7-7----7-7-7-7------0----3~--0--------------------------------------------|
D|-7---7---7-7----7-7-7-7------0----3~--0--------------------------------------------|
A|-x---x---x-x----x-x-x-x------0----x---0--------------------------------------------|
E|-7---7---7-7----7-7-7-7------0----3~--0--------------------------------------------|

Chorus:
e|-0--0-0-0-0--0----0--0-0-0-0--0----0--0-0-0-0--0----0--0-0-0-0--0----0--0-0-0-0--0----0--0-0-0-0--0---|
B|-0--0-0-0-0--0----0--0-0-0-0--0----0--0-0-0-0--0----0--0-0-0-0--0----0--0-0-0-0--0----0--0-0-0-0--0---|
G|-0--0-0-0-0--0----0--0-0-0-0--0----0--0-0-0-0--0----0--0-0-0-0--0----0--0-0-0-0--0----0--0-0-0-0--0---|
D|-7--7-7-7-7--7----7--7-7-7-7--7----7--7-7-7-7--7----7--7-7-7-7--7----7--7-7-7-7--7----7--7-7-7-7--7---|
A|-5--5-5-5-5--5----5--5-5-5-5--5----5--5-5-5-5--5----5--5-5-5-5--5----5--5-5-5-5--5----5--5-5-5-5--5---|
E|-7--7-7-7-7--7----7--7-7-7-7--7----7--7-7-7-7--7----7--7-7-7-7--7----7--7-7-7-7--7----7--7-7-7-7--7---|

e|-0--0-0-0-0--0----0--0-0-0-0--0---|
B|-0--0-0-0-0--0----0--0-0-0-0--0---|
G|-0--0-0-0-0--0----0--0-0-0-0--0---|
D|-7--7-7-7-7--7----7--7-7-7-7--7---|
A|-5--5-5-5-5--5----5--5-5-5-5--5---|
E|-7--7-7-7-7--7----7--7-7-7-7--7---|

e|----------------------------------------------------------------------------------------|
B|----------------------------------------------------------------------------------------|
G|-8----7----5------5----7----0----------------8----7----5------5----7----0---------------|
D|-9----7----5------5----7----0----------------9----7----5------5----7----0---------------|
A|-x----x----x------x----x----0----------------x----x----x------x----x----0---------------|
E|-9----7----5------5----7----0----------------9----7----5------5----7----0---------------|

e|--------------------------------------------|
B|--------------------------------------------|
G|-8----7----5------5----7----0---------------|
D|-9----7----5------5----7----0---------------|
A|-x----x----x------x----x----0---------------|
E|-9----7----5------5----7----0---------------|


************************************

| /   slide up
| \   slide down
| h   hammer-on
| p   pull-off
| ~   vibrato
| +   harmonic
| x   Mute note
| b   Bend
| pb  Pre-bend
| br  Bend release
| pbr Pre-bend release
| brb Bend release bend

************************************
Suggest correction
Creating personal tab
Creating personal tab
You can edit any tab online and save it as your Personal.

You can edit, replace or remove any tab part or add personal notes – all changes will be seen only by you.

Personal tabs can be accessed anytime from any device, even offline.
Learn more »
Give kudos to tab author, rate the tab!
1 2 3 4 5
comments
print report bad tab
guest
You may want to rate the tab now too:
select rating
Wanna post a correction for this tab? Suggest correction