Oops, an error
Loading. Please wait.

Mike Duces Symphony No 11 In D Minor intro tab

version 1
version 1

Intro

  • I've looked at the few tabs this song has and they... Show more

Whole song

Interactive

22 views 1 this week
no commentswrite comment
1 2 3 4 5
3 more votes to show rating
add to favorites
×
Save as Personal and add changes to this tab that will be seen only by you. Learn more ›
×
You can save this tab as Personal to edit and correct it or add notes. All changes will be seen only by you. Learn more »
launch autoscroll
font size
0
reset
how to read this tab
guitar tuner
edit
Autoscroll
slow
fast
+/-
esc
set tempo
stop
About this tab version
I've looked at the few tabs this song has and they all seem to missing out the intricacies of the song, like the dissonant notes in the chords and the pull offs and slides in the riff. I've listened to the song at 0.5x speed on YouTube and listened carefully to all the notes. Was this info helpful? Yes No
Video of me playing this here: https://www.youtube.com/watch?v=8-kB9iVyBS0
My timing is a bit off in some places so use the real song as a reference to time. This is to just show
my shapes and how I play it.
Tuning: Drop D (DADGBe) this tab can be played in standard as this section doesn't actually use the low D but
the rest of the song is in this tuning.

Chords used:
     1    2    3    *    
e|---0----0----0----0---|
G|---0----0----0----0---|
B|---12---9----5----0---| * This isn't really a chord,
D|---0----10---7----0---| just more a passage to go from one chord to the next.
A|---12---8----5----0---|
D|---x----x----x----0---|

So the structure for the chords part pretty much goes as follows: Chords 1 to 2 to 3 to 2, but holding on to
chord 3 on the 2nd time round.

[Chords]
(0:00-0:12)
   1        2               3        2               1        2            2  *  3
            Hold                     Hold                     Hold               Hold          Hold
e|-0----0---0--|-(0)------|-0----0---0--|-(0)------|-0----0---0--|-(0)-----0--0--0-|-(0)------|
B|-0----0---0--|-(0)------|-0----0---0--|-(0)------|-0----0---0--|-(0)-----0--0--0-|-(0)------|
G|-12---12--9--|-(9)------|-5----5---9--|-(9)------|-12---12--9--|-(9)-----9--0--5-|-(5)------|
D|-0----0---10-|-(10)-----|-7----7---10-|-(10)-----|-0----0---10-|-(10)----10-0--7-|-(7)------|
A|-12---12--8--|-(8)------|-5----5---8--|-(8)------|-12---12--8--|-(8)-----8--0--5-|-(5)------|
D|-x----x---x--|-(x)------|-x----x---x--|-(x)------|-x----x---x--|-(x)-----x--0--x-|-(x)------|


[Little picky riff before main riff]
(continue holding chord 3 shape and let ring) 
(0:13-0:15)
e|-------0--------|
B|---0-------0----|
G|-----5---5------|
D|-7--------------|
A|----------------|
D|----------------|

[Main Riff]
(the twiddly cool bit). Try hold the root notes and whole chords and let ring where possible to get
the fuller sound as heard on the record. (0:15-0:32)

e|---------------------|-----------------------|-----------------|---------------------|
B|---------12p0--------|---------0----10p0-----|-------5p0-------|-------5-0-8-0-------|
G|--------------12p0---|-------------------5p0-|-----------5p0---|---------------------|
D|---------------------|------10---10----------|-----------------|---------------------|
A|-12---12-----------8-|-(8)-------------------|-5---5---------5-/-(8)-8---------10/11/|
D|---------------------|-----------------------|-----------------|---------------------|
                                                  
                                                 3                        
                                                                          Wait 3 bars
e|---------------------|-----------------------|-0---------------|------|------|------|----0-0-0-0-|
B|---------12p0--------|--------------10p0-----|-0---------------|------|------|------|----0-0-0-0-|
G|--------------12p0---|---------9---------9---|-5---------------|------|------|------|----5/7-7-0-|
D|---------------------|------10---10----------|-7---------------|------|------|------|----0-0-0-0-|
A|/12---12-----------8-|-(8)-------------------|-5---------------|------|------|------|----5/7-7-0-|
D|---------------------|-----------------------|-x---------------|------|------|------|----x-x-x-0-|
                                                                                           3 + 4 +

(Then the whole thing repeats one time then the rest of the band join in, at which point the music changes)

************************************

|  /   Slide Up
| ( )  Held note over bar (tie)
|  p   Pull off
|  x   Dead/muted note

************************************

            
            
Suggest correction
Creating personal tab
Creating personal tab
You can edit any tab online and save it as your Personal.

You can edit, replace or remove any tab part or add personal notes – all changes will be seen only by you.

Personal tabs can be accessed anytime from any device, even offline.
Learn more »
Give kudos to tab author, rate the tab!
1 2 3 4 5
comments
print report bad tab
guest
You may want to rate the tab now too:
select rating
Wanna post a correction for this tab? Suggest correction