Oops, an error
Loading. Please wait.

Work For It Bass

922 views 9 this week
3 commentsread comments
1 2 3 4 5
x 3
add to favorites
×
Save as Personal and add changes to this tab that will be seen only by you. Learn more ›
launch autoscroll
font size
0
reset
guitar tuner
Autoscroll
slow
fast
+/-
esc
set tempo
stop
Author
Difficulty
Tuning
novice
D A D G
About this tab version
Drop D tuning, easy to play. Was this info helpful? Yes No
Lower Than Atlantis- Work For It (Bass Tab)

This is my first TAB, tried my best with it.

Listen to the song when learning this tab.





[Intro]

G|-----------------------------------------|
D|-----------------------------------------|
A|-----------------------------------------|
D|-0-0-0-0-0-0-3-0-5-0-0-0-0-0-0-0-7-0-6-0-|


[Verse]

G|----------------------------------------------------------|
D|----------------------------------------------------------|
A|----------------------------------------------------------|
D|-00PM--00PM----00PM--00PM----00PM--00PM----00PM---5-5-5-5-|

G|----------------------------------------------------|
D|----------------------------------------------------|
A|----------------------------------------------------|
D|-00PM--00PM----00PM--00PM----00PM--00PM----00PM--00-|

[Bridge]

G|---------------------------------------------------------|
D|---------------------------------------------------------|
A|---------------------------------------------------------|
D|-0----0-3---0-5---0-3--3-3-3-3-3-0-3-5-6-5-5-0-3-5-6-5-5-|


[Chorus 1]

G|-----------------------------------------|
D|-----------------------------------------|
A|-----------------------------------------|
D|-0-0-0-0-0-0-3-0-5-0-0-0-0-0-0-0-7-0-6-0-|

G|-----------------------------------------|
D|-----------------------------------------|
A|-----------------------------------------|
D|-0-0-0-0-0-0-3-0-5-0-0-0-0-0-0-0-0-0-0-0-|


[Verse]

G|----------------------------------------------------------|
D|----------------------------------------------------------|
A|----------------------------------------------------------|
D|-00PM--00PM----00PM--00PM----00PM--00PM----00PM---5-5-5-5-|

G|----------------------------------------------------|
D|----------------------------------------------------|
A|----------------------------------------------------|
D|-00PM--00PM----00PM--00PM----00PM--00PM----00PM--00-|


[Chorus 2]

G|-----------------------------------------|
D|-----------------------------------------|
A|-----------------------------------------|
D|-0-0-0-0-0-0-3-0-5-0-0-0-0-0-0-0-7-0-6-0-|

G|-----------------------------------------|
D|-----------------------------------------|
A|-----------------------------------------|
D|-0-0-0-0-0-0-3-0-5-0-0-0-0-0-0-0-9-0-8-0-|

G|-----------------------------------------|
D|-----------------------------------------|
A|-----------------------------------------|
D|-0-0-0-0-0-0-3-0-5-0-0-0-0-0-0-0-7-0-6-0-|

G|-----------------------------------------|
D|-----------------------------------------|
A|-----------------------------------------|
D|-0-0-0-0-0-0-3-0-5-0-0-0-0-0-0-0-0-0-0-0-|


[Solo]

G|---------------------------------------------|
D|---------------------------------------------|
A|-0-3-0-5---6-5-0-3--3-5-4--0-3-0-5---6-5-3-0-|
D|---------------------------------------------|


[Break]


[Bridge]

G|---------------------------------------------------------|
D|---------------------------------------------------------|
A|---------------------------------------------------------|
D|-0----0-3---0-5---0-3--3-3-3-3-3-0-3-5-6-5-5-0-3-5-6-5-5-|


[Chorus 3- same as chorus 2]


[Outro]

G|------------------------|
D|------------------------|
A|------------------------|
D|-14\1-0-0-14\1-0-0--5-5-|


************************************

| \   Slide down
| PM  Palm mute

************************************
Suggest correction
Give kudos to tab author, rate the tab!
1 2 3 4 5
comments
print report bad tab
3 comments total.
+1 reply
wam1999 10 Oct 27, 2016 11:17 AM, edited at 03:19 pm

solo sounds like it should be A:-0-3-05---6-5-03--3-5--0-3-05--6-5-03-0

0 reply
wam1999 10 Oct 27, 2016 11:25 AM

any ideas on the pre chorus or the bridge yet?

guest
You may want to rate the tab now too:
select rating
Wanna post a correction for this tab? Suggest correction