Oops, an error
Loading. Please wait.

Damselfly tab

688 views 57 this week
no commentswrite comment
1 2 3 4 5
x 3
add to favorites
×
Save as Personal and add changes to this tab that will be seen only by you. Learn more ›
×
You can save this tab as Personal to edit and correct it or add notes. All changes will be seen only by you. Learn more »
launch autoscroll
font size
0
reset
how to read this tab
guitar tuner
edit
Autoscroll
slow
fast
+/-
esc
set tempo
stop
Damselfly - Loyle Carner & Tom Misch
Yesterday's Gone
link: https://www.youtube.com/watch?v=YhscQ_4dXEY
This the guitar in this song is essentially made up of two parts, the first being 
the looping rhythm guitar that plays behind the vocals for a good portion of the 
song. The second is the guitar solo near the end.

0:09 :
e|------------------------11--9-----------------------------------------------|
B|---4----7----7----7--9------------4----7----7----7--9--12-------------------|
G|----------------------------------------------------------------------------|
D|--6----8----8----8---------------6----8----8----8---------------------------| Repeat Until 2:31
A|----------------------------------------------------------------------------|
E|-4----6----7----8----9------9---4----6----7----8----9--12-------------------|

2:31 (Solo Part I) :
e|----------------------------------------------------------------------------|
B|---------4-4----------2/4---------------------------------------------------|
G|-----4-6-----4-6-----------6------------------------------------------------|
D|-4-6--------------6-9-------------------------------------------------------|
A|----------------------------------------------------------------------------|
E|----------------------------------------------------------------------------|

2:39 (Solo Part II) *This escelating scale is played faster than the first
e|---------7-6---7-9-7-9/11-7h9-7h9p7h9---------------------------------------|
B|-------4----7-9-------------------------------------------------------------|
G|----4-6---------------------------------------------------------------------|
D|-4-6------------------------------------------------------------------------|
A|----------------------------------------------------------------------------|
E|----------------------------------------------------------------------------|

2:43
e|-14-------------14-----14---------------------------------------------------|
B|---16-17-16-14----14-----16-17-14-16-12-14-11-12-9--------------------------|
G|----------------------------------------------------------------------------|
D|----------------------------------------------------------------------------|
A|----------------------------------------------------------------------------|
E|----------------------------------------------------------------------------|


************************************

| /  Slide up
| h  Hammer-on
| p  Pull-off

************************************

            
            
Suggest correction
Creating personal tab
Creating personal tab
You can edit any tab online and save it as your Personal.

You can edit, replace or remove any tab part or add personal notes – all changes will be seen only by you.

Personal tabs can be accessed anytime from any device, even offline.
Learn more »
Give kudos to tab author, rate the tab!
1 2 3 4 5
comments
print report bad tab
guest
You may want to rate the tab now too:
select rating
Wanna post a correction for this tab? Suggest correction