Oops, an error
Loading. Please wait.

Lost On You Tab

by LP
5,476 views 465 this week
no commentswrite comment
1 2 3 4 5
2 more votes to show rating
add to favorites
launch autoscroll
font size
0
reset
how to read this tab
guitar tuner
Autoscroll
slow
fast
+/-
esc
set tempo
stop
Help us to improve Ultimate-Guitar.com Take our survey!
×
Author
Difficulty
novice
[Verse 1]
e---------------------------------------|
Β--1---1---1---1--------1--------1------|
G---------------------------------------|
D------------------3---------3-------3--|
A---------------------------------------|
E---------------------------------------|
 When you get ol-der, plain-er, sane-r


e---------------------------------------------|
Β--1---1---1--1-----1-------1-----------------|
G------------------------------3--1---3-------|
D---------------3-------3-------------------3-|
A---------------------------------------------|
E---------------------------------------------|
 Will you remember all the danger we came from?

[Verse 2]
e---------------------------------------|
Β--1---1---1---1--------1--------1------|
G---------------------------------------|
D------------------3---------3-------3--|
A---------------------------------------|
E---------------------------------------|
 Bur-ning like emb-ers,fall-ing,ten-der


e--------------------------------------------------|
Β--1---1---1---1---1-------1------1----------------|
G-------------------------------------3---1----3---|
D-----------------------3-----3------------------3-|
A--------------------------------------------------|
E--------------------------------------------------|
 Long-ing for the days of no sur-rend-er years ago


e---------------------------------------|
Β----------------1----------------------|
G--0------------------------------------|
D------3----3---------------------------|
A---------------------------------------|
E---------------------------------------|
  And will you know?

[Pre-chorus]
e---------------------------------------------------|
Β---------------------------------------------------|
G--1---1----3---0--1-------0------------------------|
D----------------------3-------2-----3---0---2---2--|
A---------------------------------------------------|
E---------------------------------------------------|
  So smoke 'em if you got 'em cause it's go-ing down


e---------------------------------------|
Β---------------------------------------|
G--1--3--0--1-------0-------------------|
D--------------3-------2---3------------|
A---------------------------------------|
E---------------------------------------|
  All I ev-er want-ed was you


e-------------------------------------------------|
Β-------------------------------------------------|
G------1--3---0---1------0------------------------|
D--------------------3--------2---3---0-----2---2-|
A--3----------------------------------------------|
E-------------------------------------------------|
 I'll ne-ver get to hea-ven cause I don't know how


e---------------------------------------|
Β--1----------1-----------1-------------|
G---------------------------------3-----|
D--------3----------3-------------------|
A---------------------------------------|
E---------------------------------------|
 Let's raise  a   glass   or     two

[Chorus]
e---------------------------------------------|
Β-------2----1---------------------------1----|
G--1--------------3------1----3---3--3------0-|
D---------------------------------------------|
A---------------------------------------------|
E---------------------------------------------|
  For  all  the things I've lost on you, Oh oh


e---------------------------------------|
Β--1------------------------------------|
G------3---1---0----1----1----1---3-----|
D-------------------------------------3-|
A---------------------------------------|
E---------------------------------------|
 Tell me  are they lost on   you, Oh oh


e---------------------------------------|
Β--2---1--------------------------1-----|
G----------3----1----3---3---3--------0-|
D---------------------------------------|
A---------------------------------------|
E---------------------------------------|
 Just so  you could cut me loose, Oh oh


e---------------------------------------|
Β---------1-----------------------------|
G--0-0-------3---1---0-----1---1--1-----|
D---------------------------------------|
A---------------------------------------|
E---------------------------------------|
  After  everything I've lost on you


e---------------------------------------|
Β---------------------------------------|
G--0---0-----1----1----1----------------|
D---------------------------------------|
A---------------------------------------|
E---------------------------------------|
  Is that  lost  on   you?


e---------------------------------------|
Β--2----1-------------------------1-----|
G------------3------1----3-----------0--|
D---------------------------3-----------|
A---------------------------------------|
E---------------------------------------|
  Oh  Oh    Oh     Oh   OH-Oh    Oh  Oh


e---------------------------------------|
Β--1------------------------------------|
G------3----1----0----1-----------------|
D---------------------------------------|
A---------------------------------------|
E---------------------------------------|
  Oh  Oh   Oh    Oh   Oh


e---------------------------------------|
Β---------------------------------------|
G--2---2---3----3---3-------------------|
D---------------------------------------|
A---------------------------------------|
E---------------------------------------|
  Is that lost on you?

[Outro]
e---------------------------------------|
Β--2----1-------------------------1-----|
G------------3------1----3-----------0--|
D---------------------------3-----------|
A---------------------------------------|
E---------------------------------------|
  Oh  Oh    Oh     Oh   OH-Oh    Oh  Oh


e------------------------------------------------|
Β-1----------------------------------------------|
G----3--1---0----1---1---1----0---0---1---1---1--|
D------------------------------------------------|
A------------------------------------------------|
E------------------------------------------------|
  Ba-by is that lost on you? Is that lost on you?






Suggest correction
Give kudos to tab author, rate the tab!
1 2 3 4 5
comments
print report bad tab
guest
You may want to rate the tab now too:
select rating
Wanna post a correction for this tab? Suggest correction