Oops, an error
Loading. Please wait.

Wasted Bass Tab

version 1
version 1

Whole song

Interactive

by LP
417 views 1 this week
no commentswrite comment
1 2 3 4 5
please rate
add to favorites
launch autoscroll
font size
0
reset
guitar tuner
Autoscroll
slow
fast
+/-
esc
set tempo
stop
Help us to improve Ultimate-Guitar.com Take our survey!
×
Author
-------------------------------------------------------------------------------
			     Wasted - L.P.
-------------------------------------------------------------------------------

Tabbed By: valerie l
e-mail: iloled@yahoo.com
Tuning: standard

Intro x2
G|---14----14----14----14--|--9---9---9---9-|--11---11---11---11|---7---7--7---7|
D|12----12----12----12-----|7---7---7---7---|9----9----9----9---|-5---5---5--5--|
A|-------------------------|----------------|-------------------|---------------|
E|-------------------------|----------------|-------------------|---------------|

Verse x4
G|---14----14----14----14--|--9---9---9---9-|--11---11---11---11|---7---7--7---7|
D|12----12----12----12-----|7---7---7---7---|9----9----9----9---|-5---5---5--5--|
A|-------------------------|----------------|-------------------|---------------|
E|-------------------------|----------------|-------------------|---------------|

pre-chorus "everything is waiting here..."
G|----------------------|-----------------|
D|----------------------|-----------------|
A|12\-------------------|-----------------|
E|-----22-3-3-5-5555555-|--22-3-3-5-555555|

chorus "don't mess with my heart..."
G|-------------------------------------|
D|-------------------------------------|
A|55555555-00000000-22222222-----------|
E|---------------------------33333333--| x4

verse x6

pre-chorus
G|-------------------|
D|-------------------|
A|-------------------|
E|----22-3-3-55~-----| x2

chorus x6
pre-chorus x2
chorus x6
pre-chorus x1
Suggest correction
Give kudos to tab author, rate the tab!
1 2 3 4 5
comments
print report bad tab
guest
You may want to rate the tab now too:
select rating
Wanna post a correction for this tab? Suggest correction