Oops, an error
Loading. Please wait.

Wasted Tab

version 1
version 1

Whole song

Interactive

by LP
5,756 views 3 this week
2 commentsread comments
1 2 3 4 5
excellent!
x 4
add to favorites
launch autoscroll
font size
0
reset
how to read this tab
guitar tuner
Autoscroll
slow
fast
+/-
esc
set tempo
stop
Help us to improve Ultimate-Guitar.com Take our survey!
×
Author
Difficulty
novice
Wasted – L.P.
http://www.lprock.com/

Intro/Verse
E|--------------------------------------------------------------------|
B|--------------------------------------------------------------------|
G|--------------------------------------------------------------------|
D|----7-7-7-7--2-2-2-2--4-4-4-4---------------------------------------|
A|---5-5-5-5--0-0-0-0--2-2-2-2---5-5-5-5------------------------------|
E|-----------------------------3-3-3-3--------------------------------|

Pre-Chorus
“Everything is waiting here”
E|--------------------------------------------------------------------|
B|--------------------------------------------------------------------|
G|--------------------------------------------------------------------|
D|---44--55—-77-------------------------------------------------------|
A|---44--55--77---x2--------------------------------------------------|
E|---22--33--55-------------------------------------------------------|

Chorus x5
E|--------------------------------------------------------------------|
B|--------------------------------------------------------------------|
G|--77777777------------44444444--------------------------------------|
D|--77777777--77777777--44444444--55555555----------------------------|
A|--55555555--77777777--22222222--55555555----------------------------|
E|------------55555555------------33333333----------------------------|

2nd Verse (just mess around with these riffs)
             It seems empty…                  If you don’t give
E|--------------------------------------------------------------------|
B|-----------------------------5-7-10~--------------------------------|
G|-------7~------7~----------7-----------6-7--------------------------|
D|------7~------7~----------7---------------9-------------------------|
A|-----5~------5~----------5------------------------------------------|
E|--------------------------------------------------------------------|
        
        Forever…
E|--------------------------------------------------------------------|
B|--------------------------------------------------------------------|
G|-------7-6-7---7-6-7------7-6-7---7-6-7-----------------------------|
D|--------------------9-------------------7---------------------------|
A|--------------------------------------------------------------------|
E|--------------------------------------------------------------------|


Pre-Chorus x2

Chorus x5

Solo

Pre-Chorus x2

Chorus x6

Pre-Chorus x2


Suggest correction new What's this?
You can suggest a correction to this tab. Community and Mods will review your correction and vote to approve or reject it.
comments
print report bad tab
2 comments total.
0 reply
TechnicolorType 3,446 wrote on September 30 2009, 09:21 pm

South of Nowhere

0 reply
TechnicolorType 3,446 wrote on September 30 2009, 09:22 pm

for some reason less than three wouldn't show up behind that.. lol

guest
You may want to rate the tab now too:
select rating
Please do not post tabs as comments. Select "correction" instead!