Oops, an error
Loading. Please wait.

Aeroplane tab

1,048 views 3 this week
no commentswrite comment
1 2 3 4 5
x 4
add to favorites
×
Save as Personal and add changes to this tab that will be seen only by you. Learn more ›
×
You can save this tab as Personal to edit and correct it or add notes. All changes will be seen only by you. Learn more »
launch autoscroll
font size
0
reset
how to read this tab
guitar tuner
edit
Autoscroll
slow
fast
+/-
esc
set tempo
stop
[Intro]

Guitar 1
e|----0-----0-------------7-----------0-----0--------------------------------|
B|7/9-------------7-----------7---7/9-------------0--------------------------|
G|------6/8---8/9-----9-----------------6/8---8\6-----8---9---8--------------|    x2
D|---------------------------------------------------------------------------|
A|---------------------------------------------------------------------------|
D|---------------------------------------------------------------------------|

Guitar 2
e|---------------------------------------------------------------------------|
B|---------------------------------------------------------------------------|
G|---------------------------------------------------------------------------|
D|2-2-*-9-9-*-9------9-9---9---9---2-2-*-9-9-*-9-----9-9---9---9-------------|
A|2-2-*-9-9-*-7------7-7---7---7---2-2-*-9-9-*-7-----7-7---7---7-------------|
D|2-2-*-9-9-*-7------7-7---7---7---2-2-*-9-9-*-7-----7-7---7---7-------------|

e|---------------------------------------------------------------------------|
B|---------------------------------------------------------------------------|
G|---------------------------------------------------------------------------|
D|2-2-*-9-9-*-9-----9--9----9--9--9----9-9-9-9-9-9-9-9-9-9-9-9-9-9-9---------|
A|2-2-*-9-9-*-11----11-11---11-11-11---9-9-9-9-9-9-9-9-9-9-9-9-9-9-9---------|
D|2-2-*-9-9-*-11----11-11---11-11-11---9-9-9-9-9-9-9-9-9-9-9-9-9-9-9---------|


[Verse]

Guitar 2
e|----------------------------------------------------------------|
B|------------------------------------------------3---3---4---4---|
G|------------------------------------------------4---4---4---4---|
D|9---9-9-9-9-9-9-9-9-9-9-9-9-9-9-9---9-9-9-9-9-9-6---6---4---4---|
A|7---7-7-7-7-7-7-7-7-7-7-7-7-7-7-9---9-9-9-9-9-9-4---4---2---2---|
D|7---7-7-7-7-7-7-7-7-7-7-7-7-7-7-6---6-6-6-6-6-6---------2---2---|
P.M     - - - - - - - - - - - - -       - - - - -

e|----------------------------------------------------------------|
B|----------------------------------------------------------------|
G|----------------------------------------------------------------|
D|9---9-9-9-9-9-9-9-9-9-9-9-9-9-9-9---9-9-9-9-9-9-----------------|
A|7---7-7-7-7-7-7-7-7-7-7-7-7-7-7-9---9-9-9-9-9-9-----------2-----|
D|7---7-7-7-7-7-7-7-7-7-7-7-7-7-7-6---6-6-6-6-6-6-4---2-4/6---6---|
P.M     - - - - - - - - - - - - -       - - - - -

e|----------------------------------------------------------------|
B|------------------------------------------------3---3---4---4---|
G|------------------------------------------------4---4---4---4---|
D|9---9-9-9-9-9-9-9-9-9-9-9-9-9-9-9---9-9-9-9-9-9-6---6---4---4---|
A|7---7-7-7-7-7-7-7-7-7-7-7-7-7-7-9---9-9-9-9-9-9-4---4---2---2---|
D|7---7-7-7-7-7-7-7-7-7-7-7-7-7-7-6---6-6-6-6-6-6---------2---2---|
P.M     - - - - - - - - - - - - -       - - - - -

e|----------------------------------------------------------------|
B|------------------------------------------------3---3-3-3-3-3-3-|
G|------------------------------------------------4---4-4-4-4-4-4-|
D|9---9-9-9-9-9-9-9-9-9-9-9-9-9-9-9---9-9---9-9-9-6---6-6-6-6-6-6-|
A|7---7-7-7-7-7-7-7-7-7-7-7-7-7-7-9---9-9---9-9-9-4---4-4-4-4-4-4-|
D|7---7-7-7-7-7-7-7-7-7-7-7-7-7-7-6---6-6---6-6-6-----------------|
P.M     - - - - - - - - - - - - -     


[Chorus]

Guitar 1
e|-----------------------------------------------------------------------------|
B|-----------------------------------------------------------------------------|
G|9---9-9---9-9-9---9-9-9--111111-13---13-13---13-13-13---13-13-13---13-13-13--|
D|-----------------------------------------------------------------------------|
A|7---7-7---7-7-7---7-7-7---9-9-9-11---11-11---11-11-11---11-11-11---11-11-11--|
D|-----------------------------------------------------------------------------|

e|-----------------------------------------------------------------------------|
B|-----------------------------------------------------------------------------|
G|9---9-9---9-9-9---9-9-9--111111-16---16-16---16-16-16-13---13-13---13-13-13--|
D|-----------------------------------------------------------------------------|
A|7---7-7---7-7-7---7-7-7---9-9-9-14---14-14---14-14-14-11---11-11---11-11-11--|
D|-----------------------------------------------------------------------------|

Guitar 2
e|0---0-0---0-0-0---0-0-0---0-0-0-0---0-0---0-0-0------------------------------|
B|0---0-0---0-0-0---0-0-0---0-0-0-0---0-0---0-0-0-4---4-4---4-4-4--------------|
G|2---2-2---2-2-2---2-2-2---4-4-4-6---6-6---6-6-6-4---4-4---4-4-4--------------| x2
D|2---2-2---2-2-2---2-2-2---4-4-4-6---6-6---6-6-6-4---4-4---4-4-4--------------|
A|0---0-0---0-0-0---0-0-0---2-2-2-4---4-4---4-4-4-2---2-2---2-2-2--------------|
D|------------------------------------------------2---2-2---2-2-2--------------|


Both guitars 
e|--------------------------------0---0-0---0-0-0---0-----------------------------|
B|5---5-*-5---5-*-5---5-5---5-5-5-0---0-0---0-0-0---0-----------------------------|
G|4---4-*-4---4-*-4---4-4---4-4-4-2---2-2---2-2-2---2-----------------------------|
D|------*-------*-----------------2---2-2---2-2-2---2-----------------------------|
A|4---4-*-3---3-*-2---2-2---2-2-2-0---0-0---0-0-0---0-----------2-----------------|
D|----------------------------------------------------2-4-2-4/6-------------------|

e|----------------------------------------------------------------------------|
B|--------5-------------------------------------------------------------------|
G|--------4-------------------------------------------------------------------|
D|--------------11--11--111111---9---9----------------------------------------|
A|4---4---4---4-9---9---9-9-9----7---7----------------------------------------|
D|--------------8---8---8-8-8----7---7----------------------------------------|


INTRO REPEATS

Guitar 1
e|--------------16-16-16---------------------------------------16-16-16-16h17p16-------------------|
B|17---14-12/14----------------12-14p12-14p12----17---14-12/14-------------------17-16/17-14/16----|
G|-----------------------11/13------------------------------------------------------------------16-|
D|-------------------------------------------------------------------------------------------------|
A|-------------------------------------------------------------------------------------------------|
D|-------------------------------------------------------------------------------------------------|

e|--------------16-16-16------------------------------|
B|17---14-12/14----------------12-14p12-14p12---------|
G|-----------------------11/13------------------13----|
D|----------------------------------------------------|
A|----------------------------------------------------|
D|----------------------------------------------------|

Guitar 2

e|---------------------------------------------------------------------------|
B|---------------------------------------------------------------------------|
G|9---9-9-9-9-9-9-9-9-9-9-9-9-9-9-9---9-9-9-9-9-9-9-9-9-9-9-9-9-9-9----------|
D|---------------------------------------------------------------------------|
A|---------------------------------------------------------------------------|
D|---------------------------------------------------------------------------|

e|---------------------------------------------------------------------------|
B|---------------------------------------------------------------------------|
G|9---9-9-9-9-9-9-9-9-9-9-9-9-9-9-9------------------------------------------|
D|---------------------------------------------------------------------------|
A|---------------------------------------------------------------------------|
D|---------------------------------------------------------------------------|


REPEAT CHORUS


[Bridge]

Guitar 1
e|----0-----0-------------7-----------0-----0--------------------------------|
B|7/9-------------7-----------7---7/9-------------0--------------------------|
G|------6/8---8/9-----9-----------------6/8---8\6-----8---9---8--------------|    x6
D|---------------------------------------------------------------------------|
A|---------------------------------------------------------------------------|
D|---------------------------------------------------------------------------|


Guitar 2                                                                bend on 12th
e|-------------------------------------------------------------------------------------|
B|------------------------12-12-12-12-12-12-12---------------------------12>(14)>12----|
G|13-13-13-11-11-11-9-9-9----------------------13-13-13-11-11-11-9-9-9-9---------------|    
D|-------------------------------------------------------------------------------------| x 2
A|-------------------------------------------------------------------------------------|
D|-------------------------------------------------------------------------------------|

Guitar 2
e|12-12-12-9-9-9-7-7-7-7-7-7-7-7-7-7-|
B|-----------------------------------|
G|-----------------------------------|  x4
D|-----------------------------------|
A|-----------------------------------|
D|-----------------------------------|


CHORUS AGAIN JUST LISTEN TO HOW IT FINISHES (A LITTLE DIFFERENT)


************************************

| h  Hammer-on
| p  Pull-off
| /  Slide up
| \  Slide down
| *  DEAD NOTE
|PM  Palm mute

************************************

            
            
Suggest correction
Creating personal tab
Creating personal tab
You can edit any tab online and save it as your Personal.

You can edit, replace or remove any tab part or add personal notes – all changes will be seen only by you.

Personal tabs can be accessed anytime from any device, even offline.
Learn more »
comments
print report bad tab
guest
You may want to rate the tab now too:
select rating
Wanna post a correction for this tab? Suggest correction