Oops, an error
Loading. Please wait.

Mr Irresponsible Tab

22 views 6 this week
no commentswrite comment
1 2 3 4 5
3 more votes to show rating
add to favorites
launch autoscroll
font size
0
reset
how to read this tab
guitar tuner
Autoscroll
slow
fast
+/-
esc
set tempo
stop
Help us to improve Ultimate-Guitar.com Take our survey!
×
Author
Difficulty
intermediate
Title: Mr. Irresponsible
Artist: Lucas Hamming
Album: HAM (2015)
 
[Intro]
(0:00)
Guitar 1:
Feedback sounds and natural harmonics. Then, at (0:16):
e|-----------------------------------|
B|--10~---10b11br10-h8-10-8--10-8----|
G|--------------------------------9~-|
D|-----------------------------------|
A|-----------------------------------|
E|-----------------------------------|
 
[Verse]
(0:22) “Standing on the roof of the Hilton (...)”
Guitar 1:
e|------------------------------------------------------------------|
B|------------------------------------------------------------------|
G|------------------------------------------------------------------|
D|--5/7-7---5-5---5-2-2---5-5---5/7-7---5-5---5-2-2---5-5−−−−−------|
A|--5/7-7---5-5---5-2-2---5-5---5/7-7---5-5---5-2-2---5-5−−−--(2x)--|
E|--3/5-5---3-3---3-0-0---3-3---3/5-5---3-3---3-0-0---3-3−−−−−------|
                                                     

(0:35) “I wonder, do they think I am crazy (...)”
Guitar 1:
e|-----------------------------------------------------------|
B|-----------------------------------------------------------|
G|-----------------------------------------------------------|
D|--5/7-7---5-5---5-2-2---5-5---5/7-7---5-5---5-2-2---5-5−−--|
A|--5/7-7---5-5---5-2-2---5-5---5/7-7---5-5---5-2-2---5-5−−--|
E|--3/5-5---3-3---3-0-0---3-3---3/5-5---3-3---3-0-0---3-3−---|

Guitar 2:
e|--------0-----0-------0−----0−−−−−−−0−−−−−0−−−−−-−0−−−--0−-|
B|--------0-----0-------0-----0−−−−−−−0−−−−−0−−−−-−−0−−−-−0--|
G|--------0-----0-------0-----0−−−−−−-0−−−−−0−−−−---0−−−-−0--|
D|-----------------------------------------------------------|
A|-----------------------------------------------------------|
E|-----------------------------------------------------------|


(0:41) “There’s something in the water that makes me (...)” 
Guitar 1:
e|----------------------------------------------------------------------|
B|----------------------------------------------------------------------|
G|-------------------------------7-7---7-------------------------9-8-7--|
D|--5/7-7---5-5---5-2-2---5-5----7−7---7−7−8−9−2−−−−−−−−−----−−--9-8-7--|
A|--5/7-7---5-5---5-2-2---5-5−---5−5−--5−7−8−9−2−−−7−7−−−−−−7−7−-7-6-5--|
E|--3/5-5---3-3---3-0-0---3-3−-−−−−−−−−-−5-6-7−0−−0−----0-0−−−−−−--−−---|

Guitar 2:
e|--------0-----0-------0−----0−−−−−-0−−−--−−0−−−−−0−0−−-−--0−0−−−−−−---|
B|--------0-----0-------0-----0−−−−−−0−−−−--−0−−−−-0−0−−−-−-0-0−−−−−−−--|
G|--------0-----0-------0-----0−−−−−-0−−−−--−0−−−−-0-0−−−-−-0-0−−−−−−−--|
D|----------------------------------------------------------------------|
A|----------------------------------------------------------------------|
E|----------------------------------------------------------------------|


[Chorus]
(0:49) “Call me Mr. Irresponsible”h
Guitar 1: 
e|---------------------------------------------------------------|
B|---------------------------------------------------------------|
G|--5--5-5-5-5-5-5-5−-−−−−−−−−−−−-−−−−−−−−−−−−−−−−−−−−−−−−−−−−−--|
D|--5--5-5-5-5-5-5-5--5-5-5-5-5-5-5-5−7−-7--7-7-7--7-7-7--7-7-7--|
A|--3--3-3-3-3-3-3-3-−5-5-5-5-5-5-5-5−7--7--7-7-7--7-7-7--7-7-7−-|
E|--------------------3-3-3-3-3-3-3-3-5--5−-5-5-5--5-5-5--5-5-5--|

Guitar 2:
e|---------------5-5--7-7-5-5------------------------------------|
B|--5--5-7-7-8-8−−−−−−−−−−−−--8-7−−−−−−−−−−−−−−−−−−−−−−−−−−−−−−--|
G|------------------------------------2--2--2/4-4−−4/6-6--6/7-7--|
D|------------------------------------−−−−−−−−−−−−−−−−−−−−−−−−−--|
A|---------------------------------------------------------------|
E|---------------------------------------------------------------|

(0:56) “Growing up seems so impossible”
Guitar 1:
e|--------------------------------------------------------------|
B|--------------------------------------------------------------|
G|--5--5-5-5-5-5-5-5−-−−−−−−−−−−−-−−−−−−−−−−7--7−--−−−−−10--10--|
D|--5--5-5-5-5-5-5-5--5-5-5-5-5-5-5-5−7−-7--7--7--9--9--10--10--|
A|--3--3-3-3-3-3-3-3-−5-5-5-5-5-5-5-5−7--7--5--5--9--9--8---8-−-|
E|--------------------3-3-3-3-3-3-3-3-5--5−−−−−−--7--7−−−−−−----|

Guitar 2:
e|---------------5-5--7-7-5-5-----------------------------------|
B|--5--5-7-7-8-8−−−−−−−−−−−−--8-7−−−−−−−−−−−−−−−−−−−−−−−−−−−−−--|
G|------------------------------------------7--7--------10--10--|
D|------------------------------------7--7--7--7--9--9--10--10−-|
A|------------------------------------7--7--5--5--9--9--8−--8---|
E|------------------------------------5--5--------7--7----------|

(1:01) “Help me out I’m bound to...”
Guitar 1:
e|------------------------------------------------|
B|------------------------------------------------|
G|------------------------------------------------|
D|--2--2--2--2--2--2--2--2−−2--2--2--2--2--2--2--−|
A|--2--2--2--2--2−-2--2--2−−2--2--2--2--2--2--2--−|
E|--0--0--0--0--0--0--0--0−−0--0--0--0--0--0--0--−|

Guitar 2:
e|--12-12−−−−−−−−−−−−−−−−−--12-12−−−−−−−−−−−−−−−−-|
B|--------12-12−−−−−--12-12−−−−−--12-12−−−−−−-12-−|
G|--------------12-12−−−−−−−−−−−−−−−−−--12-12−−−−-|
D|------------------------------------------------|
A|------------------------------------------------|
E|------------------------------------------------|

(1:05) “...fall, should I change my ways, I...”
Guitar 1:
e|-----------------------------------------------|
B|-----------------------------------------------|
G|-----------------------------------------------|
D|-7---7--7--7--7--7--7--7--7--7--7--7--7--7--7-−|
A|-7---7--7--7--7--7--7--7--7--7--7--7--7--7--7-−|
E|-5−--5--5--5--5--5--5--5--5--5--5--5--5--5--5-−|

Guitar 2:
e|-9−--9-−−−−−−−−−−−−−−−−−−−9--9−−−−−−−−−−−−−-−---|
B|--------10-10−8--8--10-10−−−−−--10-10−8--8−-10-−|
G|--------------−−−−−−−−−−−−−−−−−−−−−−−−−−−−−−--−-|
D|------------------------------------------------|
A|------------------------------------------------|
E|------------------------------------------------|

(1:09) “...know I have been fooling around (know I have been fooling around)”
Both guitars:
e|----------------------------------------------------------------|
B|----------------------------------------------------------------|
G|-5--5-5-5-5--------------------7--7-7-7-7−−−−−−−−−−−−−−−−−−−−−--|
D|-5--5-5-5-5-5-6-7--7-7-7-7-7-7-7--7-7-7-7-7-8-9--9-9-9-9-9-9-9--|
A|-3--3-3-3-3-5-6-7--7-7-7-7-7-7-5--5-5-5-5-7-8-9--9-9-9-9-9-9-9−-|
E|------------3-4-5--5-5-5-5-5-5−−−−−−−−−−−-5-6-7−-7-7-7-7-7-7-7−-|

(1:14) “Will I ever find a...”
Guitar 1:
e|------------------------------------------------|
B|------------------------------------------------|
G|------------------------------------------------|
D|--2--2--2--2--2--2--2--2−−2--2--2--2--2--2--2--−|
A|--2--2--2--2--2−-2--2--2−−2--2--2--2--2--2--2--−|
E|--0--0--0--0--0--0--0--0−−0--0--0--0--0--0--0--−|

Guitar 2:
e|--12-12−−−−−−−−−−−−−−−−−--12-12−−−−−−−−−−−−−−−−-|
B|--------12-12−−−−−--12-12−−−−−--12-12−−−−−−-12-−|
G|--------------12-12−−−−−−−−−−−−−−−−−--12-12−−−−-|
D|------------------------------------------------|
A|------------------------------------------------|
E|------------------------------------------------|

(1:17) “...way, to understand why people...”
Guitar 1:
e|-----------------------------------------------|
B|-----------------------------------------------|
G|-----------------------------------------------|
D|-7---7--7--7--7--7--7--7--7--7--7--7--7--7--7-−|
A|-7---7--7--7--7--7--7--7--7--7--7--7--7--7--7-−|
E|-5−--5--5--5--5--5--5--5--5--5--5--5--5--5--5-−|

Guitar 2:
e|-9−--9-−−−−−−−−−−−−−−−−−−−9--9−−−−−−−−−−−−−-−---|
B|--------10-10−8--8--10-10−−−−−--10-10−8--8−-10-−|
G|--------------−−−−−−−−−−−−−−−−−−−−−−−−−−−−−−--−-|
D|------------------------------------------------|
A|------------------------------------------------|
E|------------------------------------------------|

(1:20) “...always got to leave me in pain? Life is just losing game to me”
Both guitars:
e|-----------------------------------------------------------|
B|-----------------------------------------------------------|
G|-5--5-5-5-5-------------------−7--7−--−−−−−10--10-−10--10--|
D|-5--5-5-5-5-5-6-7--7-7-7-7-7-7-7--7--9--9--10--10--10--10--|
A|-3--3-3-3-3-5-6-7--7-7-7-7-7-7-5--5--9--9--8−--8---8−--8−--|
E|------------3-4-5--5-5-5-5-5-5-------7--7---------−−−−−−−−-|

(1:27)
Guitar 1:
e|-------------------|
B|-------------------|
G|-------------------|
D|--5/7-7--5-5--5-2−-|
A|--5/7-7--5-5--5-2--|
E|--3/5-5--3-3--3-0--|

[Verse]
(1:28) “I try my best to lure for the sun (...)”
Guitar 2:
e|----0----0----0−---0−−−−0−-−−0−−-−0−−--0−−--0−−--0−−--0−-|
B|----0----0----0----0−−−−0−−−−0−−−−0−−-−0−−--0−−−-0−−--0−-|
G|----0----0----0----0−−−-0−−−−0−---0−−-−0−−−-0−−--0−−−-0--|
D|---------------------------------------------------------|
A|---------------------------------------------------------|
E|---------------------------------------------------------|

(1:37) “Maybe life is just a losing game”
Guitar 1:
e|-----------------------------------------|
B|-----------------------------------------|
G|--7-7---7-------------------------9-8-7--|
D|--7−7---7−7−8−9−2−−−−−−−−−----−−--9-8-7--|
A|--5−5−--5−7−8−9−2−−−7−7−−−−−−7−7−-7-6-5--|
E|−−−−−−−−-−5-6-7−0−−0−----0-0−−−−−−--−−---|

Guitar 2:
e|−−−−−-0−−−--−−0−−−−−0−0−−-−--0−0−−−−−−---|
B|−−−−−−0−−−−--−0−−−−-0−0−−−-−-0-0−−−−−−−--|
G|−−−−−-0−−−−--−0−−−−-0-0−−−-−-0-0−−−−−−−--|
D|-----------------------------------------|
A|-----------------------------------------|
E|-----------------------------------------|

[Chorus]
(1:42) “Call me Mr. Irresponsible”
Guitar 1: 
e|---------------------------------------------------------------|
B|---------------------------------------------------------------|
G|--5--5-5-5-5-5-5-5−-−−−−−−−−−−−-−−−−−−−−−−−−−−−−−−−−−−−−−−−−−--|
D|--5--5-5-5-5-5-5-5--5-5-5-5-5-5-5-5−7−-7--7-7-7--7-7-7--7-7-7--|
A|--3--3-3-3-3-3-3-3-−5-5-5-5-5-5-5-5−7--7--7-7-7--7-7-7--7-7-7−-|
E|--------------------3-3-3-3-3-3-3-3-5--5−-5-5-5--5-5-5--5-5-5--|

Guitar 2:
e|---------------5-5--7-7-5-5------------------------------------|
B|--5--5-7-7-8-8−−−−−−−−−−−−--8-7−−−−−−−−−−−−−−−−−−−−−−−−−−−−−−--|
G|------------------------------------2--2--2/4-4−−4/6-6--6/7-7--|
D|------------------------------------−−−−−−−−−−−−−−−−−−−−−−−−−--|
A|---------------------------------------------------------------|
E|---------------------------------------------------------------|

(1:48) “Growing up seems so impossible”
Guitar 1:
e|--------------------------------------------------------------|
B|--------------------------------------------------------------|
G|--5--5-5-5-5-5-5-5−-−−−−−−−−−−−-−−−−−−−−−−7--7−--−−−−−10--10--|
D|--5--5-5-5-5-5-5-5--5-5-5-5-5-5-5-5−7−-7--7--7--9--9--10--10--|
A|--3--3-3-3-3-3-3-3-−5-5-5-5-5-5-5-5−7--7--5--5--9--9--8---8-−-|
E|--------------------3-3-3-3-3-3-3-3-5--5−−−−−−--7--7−−−−−−----|

Guitar 2:
e|---------------5-5--7-7-5-5-----------------------------------|
B|--5--5-7-7-8-8−−−−−−−−−−−−--8-7−−−−−−−−−−−−−−−−−−−−−−−−−−−−−--|
G|------------------------------------------7--7--------10--10--|
D|------------------------------------7--7--7--7--9--9--10--10−-|
A|------------------------------------7--7--5--5--9--9--8−--8---|
E|------------------------------------5--5--------7--7----------|

(1:55) “Help me out I’m bound to...”
Guitar 1:
e|------------------------------------------------|
B|------------------------------------------------|
G|------------------------------------------------|
D|--2--2--2--2--2--2--2--2−−2--2--2--2--2--2--2--−|
A|--2--2--2--2--2−-2--2--2−−2--2--2--2--2--2--2--−|
E|--0--0--0--0--0--0--0--0−−0--0--0--0--0--0--0--−|

Guitar 2:
e|--12-12−−−−−−−−−−−−−−−−−--12-12−−−−−−−−−−−−−−−−-|
B|--------12-12−−−−−--12-12−−−−−--12-12−−−−−−-12-−|
G|--------------12-12−−−−−−−−−−−−−−−−−--12-12−−−−-|
D|------------------------------------------------|
A|------------------------------------------------|
E|------------------------------------------------|

(1:57) “...fall, should I change my ways, I...”
Guitar 1:
e|-----------------------------------------------|
B|-----------------------------------------------|
G|-----------------------------------------------|
D|-7---7--7--7--7--7--7--7--7--7--7--7--7--7--7-−|
A|-7---7--7--7--7--7--7--7--7--7--7--7--7--7--7-−|
E|-5−--5--5--5--5--5--5--5--5--5--5--5--5--5--5-−|

Guitar 2:
e|-9−--9-−−−−−−−−−−−−−−−−−−−9--9−−−−−−−−−−−−−-−---|
B|--------10-10−8--8--10-10−−−−−--10-10−8--8−-10-−|
G|--------------−−−−−−−−−−−−−−−−−−−−−−−−−−−−−−--−-|
D|------------------------------------------------|
A|------------------------------------------------|
E|------------------------------------------------|

(2:01) “...know I have been fooling around (know I have been fooling around)”
Both guitars:
e|----------------------------------------------------------------|
B|----------------------------------------------------------------|
G|-5--5-5-5-5--------------------7--7-7-7-7−−−−−−−−−−−−−−−−−−−−−--|
D|-5--5-5-5-5-5-6-7--7-7-7-7-7-7-7--7-7-7-7-7-8-9--9-9-9-9-9-9-9--|
A|-3--3-3-3-3-5-6-7--7-7-7-7-7-7-5--5-5-5-5-7-8-9--9-9-9-9-9-9-9−-|
E|------------3-4-5--5-5-5-5-5-5−−−−−−−−−−−-5-6-7−-7-7-7-7-7-7-7−-|

(2:06) “Will I ever find a...”
Guitar 1:
e|------------------------------------------------|
B|------------------------------------------------|
G|------------------------------------------------|
D|--2--2--2--2--2--2--2--2−−2--2--2--2--2--2--2--−|
A|--2--2--2--2--2−-2--2--2−−2--2--2--2--2--2--2--−|
E|--0--0--0--0--0--0--0--0−−0--0--0--0--0--0--0--−|

Guitar 2:
e|--12-12−−−−−−−−−−−−−−−−−--12-12−−−−−−−−−−−−−−−−-|
B|--------12-12−−−−−--12-12−−−−−--12-12−−−−−−-12-−|
G|--------------12-12−−−−−−−−−−−−−−−−−--12-12−−−−-|
D|------------------------------------------------|
A|------------------------------------------------|
E|------------------------------------------------|

(2:10) “...way, to understand why people...”
Guitar 1:
e|-----------------------------------------------|
B|-----------------------------------------------|
G|-----------------------------------------------|
D|-7---7--7--7--7--7--7--7--7--7--7--7--7--7--7-−|
A|-7---7--7--7--7--7--7--7--7--7--7--7--7--7--7-−|
E|-5−--5--5--5--5--5--5--5--5--5--5--5--5--5--5-−|

Guitar 2:
e|-9−--9-−−−−−−−−−−−−−−−−−−−9--9−−−−−−−−−−−−−-−---|
B|--------10-10−8--8--10-10−−−−−--10-10−8--8−-10-−|
G|--------------−−−−−−−−−−−−−−−−−−−−−−−−−−−−−−--−-|
D|------------------------------------------------|
A|------------------------------------------------|
E|------------------------------------------------|

(2:13) “...always got to leave me in pain? Life is just losing game to me”
Both guitars:
e|-----------------------------------------------------------|
B|-----------------------------------------------------------|
G|-5--5-5-5-5-------------------−7--7−--−−−−−10--10-−10--10--|
D|-5--5-5-5-5-5-6-7--7-7-7-7-7-7-7--7--9--9--10--10--10--10--|
A|-3--3-3-3-3-5-6-7--7-7-7-7-7-7-5--5--9--9--8−--8---8−--8−--|
E|------------3-4-5--5-5-5-5-5-5-------7--7---------−−−−−−−−-|

[Bridge]
(2:21) “I’ll never be you (...)”
The guitars don’t play anything here, but the bass plays this:
e|---------------------------------------------------------|
B|---------------------------------------------------------|
G|---------------------------------------------------------|
D|---------------------------------------------------------|
A|----5-7-5-7\----5-7-5-7\----5-7-5-7−−−−−−−−−−−−−−--−−−−−-|
E|--7−−−−−−−−−--7−−−−−−−−−--7−−−−−−−-5/7--5--3\0−−--−(2x)--|

(2:34) “I’ll never be you (...)”
Guitar 1: 
e|-------------------------|
B|-------------------------|
G|-------------------------|
D|--2-2-2-2-2-2-2-2--------|
A|--2-2-2-2-2-2-2-2−-(x8)--|
E|--0-0-0-0-0-0-0-0--------|

Guitar 2:
Feedback sounds.

(2:43) “I’d rather be dead-”
The melody that leads to the chorus is played by a synthesizer, but on guitar it’s like this:
e|----------------------------------|
B|----------------------------------|
G|----------------------------------|
D|----------------------------------|
A|----------------------------------|
E|------------------------6-5--3-0--|

[Chorus]
(2:46) “Call me Mr. Irresponsible”
Guitar 1: 
e|---------------------------------------------------------------|
B|---------------------------------------------------------------|
G|--5--5-5-5-5-5-5-5−-−−−−−−−−−−−-−−−−−−−−−−−−−−−−−−−−−−−−−−−−−--|
D|--5--5-5-5-5-5-5-5--5-5-5-5-5-5-5-5−7−-7--7-7-7--7-7-7--7-7-7--|
A|--3--3-3-3-3-3-3-3-−5-5-5-5-5-5-5-5−7--7--7-7-7--7-7-7--7-7-7−-|
E|--------------------3-3-3-3-3-3-3-3-5--5−-5-5-5--5-5-5--5-5-5--|

Guitar 2:
e|---------------5-5--7-7-5-5------------------------------------|
B|--5--5-7-7-8-8−−−−−−−−−−−−--8-7−−−−−−−−−−−−−−−−−−−−−−−−−−−−−−--|
G|------------------------------------2--2--2/4-4−−4/6-6--6/7-7--|
D|------------------------------------−−−−−−−−−−−−−−−−−−−−−−−−−--|
A|---------------------------------------------------------------|
E|---------------------------------------------------------------|

(2:52) “Growing up seems so impossible”
Guitar 1:
e|--------------------------------------------------------------|
B|--------------------------------------------------------------|
G|--5--5-5-5-5-5-5-5−-−−−−−−−−−−−-−−−−−−−−−−7--7−--−−−−−10--10--|
D|--5--5-5-5-5-5-5-5--5-5-5-5-5-5-5-5−7−-7--7--7--9--9--10--10--|
A|--3--3-3-3-3-3-3-3-−5-5-5-5-5-5-5-5−7--7--5--5--9--9--8---8-−-|
E|--------------------3-3-3-3-3-3-3-3-5--5−−−−−−--7--7−−−−−−----|

Guitar 2:
e|---------------5-5--7-7-5-5-----------------------------------|
B|--5--5-7-7-8-8−−−−−−−−−−−−--8-7−−−−−−−−−−−−−−−−−−−−−−−−−−−−−--|
G|------------------------------------------7--7--------10--10--|
D|------------------------------------7--7--7--7--9--9--10--10−-|
A|------------------------------------7--7--5--5--9--9--8−--8---|
E|------------------------------------5--5--------7--7----------|

(2:58) “Help me out I’m bound to...”
Guitar 1:
e|------------------------------------------------|
B|------------------------------------------------|
G|------------------------------------------------|
D|--2--2--2--2--2--2--2--2−−2--2--2--2--2--2--2--−|
A|--2--2--2--2--2−-2--2--2−−2--2--2--2--2--2--2--−|
E|--0--0--0--0--0--0--0--0−−0--0--0--0--0--0--0--−|

Guitar 2:
e|--12-12−−−−−−−−−−−−−−−−−--12-12−−−−−−−−−−−−−−−−-|
B|--------12-12−−−−−--12-12−−−−−--12-12−−−−−−-12-−|
G|--------------12-12−−−−−−−−−−−−−−−−−--12-12−−−−-|
D|------------------------------------------------|
A|------------------------------------------------|
E|------------------------------------------------|

(3:01) “...fall, should I change my ways, I...”
Guitar 1:
e|-----------------------------------------------|
B|-----------------------------------------------|
G|-----------------------------------------------|
D|-7---7--7--7--7--7--7--7--7--7--7--7--7--7--7-−|
A|-7---7--7--7--7--7--7--7--7--7--7--7--7--7--7-−|
E|-5−--5--5--5--5--5--5--5--5--5--5--5--5--5--5-−|

Guitar 2:
e|-9−--9-−−−−−−−−−−−−−−−−−−−9--9−−−−−−−−−−−−−-−---|
B|--------10-10−8--8--10-10−−−−−--10-10−8--8−-10-−|
G|--------------−−−−−−−−−−−−−−−−−−−−−−−−−−−−−−--−-|
D|------------------------------------------------|
A|------------------------------------------------|
E|------------------------------------------------|

(3:04) “...know I have been fooling around (know I have been fooling around)”
Both guitars:
e|----------------------------------------------------------------|
B|----------------------------------------------------------------|
G|-5--5-5-5-5--------------------7--7-7-7-7−−−−−−−−−−−−−−−−−−−−−--|
D|-5--5-5-5-5-5-6-7--7-7-7-7-7-7-7--7-7-7-7-7-8-9--9-9-9-9-9-9-9--|
A|-3--3-3-3-3-5-6-7--7-7-7-7-7-7-5--5-5-5-5-7-8-9--9-9-9-9-9-9-9−-|
E|------------3-4-5--5-5-5-5-5-5−−−−−−−−−−−-5-6-7−-7-7-7-7-7-7-7−-|

(3:10) “Will I ever find a...”
Guitar 1:
e|------------------------------------------------|
B|------------------------------------------------|
G|------------------------------------------------|
D|--2--2--2--2--2--2--2--2−−2--2--2--2--2--2--2--−|
A|--2--2--2--2--2−-2--2--2−−2--2--2--2--2--2--2--−|
E|--0--0--0--0--0--0--0--0−−0--0--0--0--0--0--0--−|

Guitar 2:
e|--12-12−−−−−−−−−−−−−−−−−--12-12−−−−−−−−−−−−−−−−-|
B|--------12-12−−−−−--12-12−−−−−--12-12−−−−−−-12-−|
G|--------------12-12−−−−−−−−−−−−−−−−−--12-12−−−−-|
D|------------------------------------------------|
A|------------------------------------------------|
E|------------------------------------------------|

(3:13) “...way, to understand why people...”
Guitar 1:
e|-----------------------------------------------|
B|-----------------------------------------------|
G|-----------------------------------------------|
D|-7---7--7--7--7--7--7--7--7--7--7--7--7--7--7-−|
A|-7---7--7--7--7--7--7--7--7--7--7--7--7--7--7-−|
E|-5−--5--5--5--5--5--5--5--5--5--5--5--5--5--5-−|

Guitar 2:
e|-9−--9-−−−−−−−−−−−−−−−−−−−9--9−−−−−−−−−−−−−-−---|
B|--------10-10−8--8--10-10−−−−−--10-10−8--8−-10-−|
G|--------------−−−−−−−−−−−−−−−−−−−−−−−−−−−−−−--−-|
D|------------------------------------------------|
A|------------------------------------------------|
E|------------------------------------------------|

(3:17) “...always got to leave me in pain? Life is just losing game to me”
Both guitars:
e|-----------------------------------------------------------|
B|-----------------------------------------------------------|
G|-5--5-5-5-5-------------------−7--7−--−−−−−10--10-−10--10--|
D|-5--5-5-5-5-5-6-7--7-7-7-7-7-7-7--7--9--9--10--10--10--10--|
A|-3--3-3-3-3-5-6-7--7-7-7-7-7-7-5--5--9--9--8−--8---8−--8−--|
E|------------3-4-5--5-5-5-5-5-5-------7--7---------−−−−−−−−-|

(3:22)
Guitar 1:
e|-------------------|
B|-------------------|
G|-------------------|
D|--5/7-7--5-5--5-2−-|
A|--5/7-7--5-5--5-2--|
E|--3/5-5--3-3--3-0--|

Guitar 2:
e|-------------------|
B|-------------------|
G|-------------------|
D|--------------5-2−-|
A|--------------5-2--|
E|--------------3-0--|



 −−−−−−−−−−−−−−−−--
| ~   vibrato      |
| b   bend         |
| br  bend release |
| h   hammer-on    |
| /   slide up     |
| \   slide down   |
 −−−−−−−−−−−−−−−−-- 
Suggest correction
Give kudos to tab author, rate the tab!
1 2 3 4 5
comments
print report bad tab
guest
You may want to rate the tab now too:
select rating
Wanna post a correction for this tab? Suggest correction