Oops, an error
Loading. Please wait.

Write Me Again bass

19 views 1 this week
no commentswrite comment
1 2 3 4 5
3 more votes to show rating
add to favorites
×
Save as Personal and add changes to this tab that will be seen only by you. Learn more ›
×
You can save this tab as Personal to edit and correct it or add notes. All changes will be seen only by you. Learn more »
launch autoscroll
font size
0
reset
guitar tuner
edit
Autoscroll
slow
fast
+/-
esc
set tempo
stop
Title: Write Me Again
Artist: Lucas Hamming
Album: HAM (2015)

[Intro]
(0:00-0:07)
G|---------------------|-----------------|--------------------|-------------------------|
D|---------------------|-----------------|----------------9-9-|-9-11-11-11-12-12-11-9---|
A|---7-7-7-7-7-7-7-7-7-|-7-7-7-7-7-7-7-7-|-7-7-7-11-11-11-----|-------------------------|
E|---------------------|-----------------|--------------------|-------------------------|

(0:07-0:15)
G|---------------------|-----------------|--------------------|------------------------|
D|---------------------|-----------------|--------------------|------------------------|
A|---7-7-7-7-7-7-7-7-7-|-7-7-7-7-7-7-7-7-|-7--------------7---|------------------------|
E|---------------------|-----------------|----------0---------|------0------0-4-3--2---|

[Verse]
(0:15-0:27)   "Hey girl, can't you see we've been here before..."
G|-----------------|---------------|-------------2--|------------|-----------------|--------------------|
D|------------2--4-|---------------|-----------2----|-4----------|-----------------|--------------------|
A|-------2h4-------|----0--2--2----|------2h4-------|------2--2/-|-7-7-7-7-7-7-7-7-|-7-7-7-7-7----------|
E|---2-------------|-2-----------0-|-2--------------|------------|-----------------|-----------4-3--2---|

(0:27-0:39)   "Oh, I should've known better than to mess things up..."
G|-----------------|-------------|-------------2-|-------------|-----------------|-------------------|
D|------------2--4-|-------------|-----------2---|-4-----------|-----------------|-------------------|
A|-------2h4-------|-------------|------2h4------|-------2--2/-|-7---------------|-------------------|
E|---2-------------|-2-----7--7\-|-2-------------|-------------|-0-0-0-0-0-0-0-0-|-0-0-0-0-0-0-0-0---|

[Pre-chorus]
(0:39-0:47)   "These days just seem to pass by..."
G|----------------|--------------|-------------|-------------|
D|----------------|--------------|-------------|-------------|
A|----------------|--------------|-------------|-------------|
E|---2----2--2----|-/5----5--5---|-0----0--0---|-7----7--7---|

(0:47-0:55)   "Even though it's just for a day..."
G|-----------------|---------------|---------------|------------|
D|-----------------|---------------|---------------|------------|
A|-----------------|---------------|-2---2---------|--------2---|
E|---5---5---4---4-|-2---2---0---0-|---------5---5-|-4-2-4------|

[Chorus]
(0:55-1:02)   "Would you write me again tomorrow..."
G|-------------------|-----------------|-----------------|-------------------|
D|-------------------|-----------------|-----------------|-------------------|
A|---------2-2-2-2---|-----------------|-------2-2-2-2---|-------------------|
E|---2-2-2---------0-|-0-0-0-5-5-5-5-5-|-2-2-2---------0-|-0-0-0-0-0-0-0-0---|

(1:02-1:10)   "Would you sing me back home tomorrow..."
G|-------------------|----------------|--------|----------|
D|-------------------|----------------|--------|----------|
A|---------2-2-2-2-4-|-4-4-4-4-----2--|--------|----------|
E|---5-5-5-----------|---------5------|-2------|-8---10---|

[Post-chorus]
(1:10-1:17)
G|----------------------|-----------------------|---------|-----------------|
D|------------------9-9-|-9-11-11-11-12-12-11-9-|---------|-----------------|
A|---7-7-7-11-11-11-----|-----------------------|-7-----7-|-----------------|
E|----------------------|-----------------------|----0----|--0---0-4-3--2---|

[Verse]
(1:17-1:29)   "I've tried to hide, close it up and put it aside..."
G|-----------------|---------------|-------------2--|------------|-----------------|--------------------|
D|------------2--4-|---------------|-----------2----|-4----------|-----------------|--------------------|
A|-------2h4-------|----0--2--2----|------2h4-------|------2--2/-|-7-7-7-7-7-7-7-7-|-7-7-7-7-7----------|
E|---2-------------|-2-----------0-|-2--------------|------------|-----------------|-----------4-3--2---|

(1:29-1:41)   "No need to regret, 'cause my dream has been shot..."
G|-----------------|-------------|-------------2-|-------------|-----------------|-------------------|
D|------------2--4-|-------------|-----------2---|-4-----------|-----------------|-------------------|
A|-------2h4-------|-------------|------2h4------|-------2--2/-|-7---------------|-------------------|
E|---2-------------|-2-----7--7\-|-2-------------|-------------|-0-0-0-0-0-0-0-0-|-0-0-0-0-0-0-0-0---|

[Pre-chorus]
(1:41-1:49)   "These days just seem to pass by..."

N.C.

(1:49-1:57)   "Even though it's just for a day..."
G|-----------------|---------------|---------------|------------|
D|-----------------|---------------|---------------|------------|
A|-----------------|---------------|-2---2---------|--------2---|
E|---5---5---4---4-|-2---2---0---0-|---------5---5-|-4-2-4------|

[Chorus]
(1:57-2:00)   "Would you write me again tomorrow..."
G|-------------------|-----------------|-----------------|-------------------|
D|-------------------|-----------------|-----------------|---------------6---|
A|---------2-2-2-2---|-----------------|-------2-2-2-2---|-------7-7-7-9-----|
E|---2-2-2---------0-|-0-0-0-5-5-5-5-5-|-2-2-2---------0-|-0-0-0-------------|

(2:05-2:15)   "Would you sing me back home tomorrow..."
G|-----------------6-|-6-6-6----------|------|---------|-----------------|-----------------|
D|---7-7-7-9-9-9-9---|-------9-7---6--|------|---------|-----------------|-----------------|
A|-------------------|----------------|-9----|---------|-7-7-7-7-7-7-7-7-|-7-7-7-7-7-7-7---|
E|-------------------|----------------|------|-8---10--|-----------------|-----------------|

[Bridge]
(2:15-2:23)   "... can you see it..."
G|-------------------|----------------|-----------------|------------------|
D|-------------------|----------------|-----------------|------------------|
A|---5-5-------------|----------------|-2-2-------------|------------------|
E|---------2---2---0-|--0-0-0-0-0-0-0-|-------2---2---0-|--0-0-0-0-0-0-0---|

(2:23-2:31)   "... can you believe this..."
G|-------------------|----------------|------------------|-------------------|
D|-------------------|----------------|------------------|-------------------|
A|---5-5-------------|----------------|-2-2--------------|-------------------|
E|---------2---2---0-|--0-0-0-0-0-0-0-|-------2---2---2/-|-7-7-7-7-7-7-7-7---|

[Chorus]
(2:31-2:39)   "Would you write me again tomorrow..."
G|----------------|-------------------|-----------------|-------------------|
D|----------------|-------------------|-----------------|-------------------|
A|---------2------|-------------------|-------2-2-2-2---|-------7-7-7-4-----|
E|---2------------|-0-0-0-0-5-5-5-5-5-|-2-2-2---------0-|-0-0-0---------7---|

(2:39-2:46)   "Would you sing me back home tomorrow..."
G|-------------------|----------------|-------|-----------|
D|-------------------|----------------|-------|-----------|
A|---------2-2-2-2-4-|-4-4-4-4-----2--|-------|-----------|
E|---5-5-5-----------|---------5------|-2-----|--8---10---|

(2:46-2:58)   "Would you write me again tomorrow..."
G|----------------|-------------------|-----------------|-------------------|
D|----------------|-------------------|-----------------|-------------------|
A|---------2------|-------------------|-------2-2-2-2---|-------7-7-7-4-----|
E|---2------------|-0-0-0-0-5-5-5-5-5-|-2-2-2---------0-|-0-0-0---------7---|

(2:58-3:01)   "Would you sing me back home tomorrow..."
G|-------------------|----------------|-------|-----------|
D|-------------------|----------------|-------|-----------|
A|---------2-2-2-2-4-|-4-4-4-4-----2--|-------|-----------|
E|---5-5-5-----------|---------5------|-2-----|--8---10---|

[Outro]
(3:01-3:11)
G|-------------------|-----|
D|-------------------|-----|
A|---7-7-7---------7-|-----|
E|---------0-0-0-0---|-0---|

******************

| h  Hammer-on
| /  Slide up
| \  Slide down

*******************
Suggest correction
Creating personal tab
Creating personal tab
You can edit any tab online and save it as your Personal.

You can edit, replace or remove any tab part or add personal notes – all changes will be seen only by you.

Personal tabs can be accessed anytime from any device, even offline.
Learn more »
Give kudos to tab author, rate the tab!
1 2 3 4 5
comments
print report bad tab
guest
You may want to rate the tab now too:
select rating
Wanna post a correction for this tab? Suggest correction