Oops, an error
Loading. Please wait.

Write Me Again tab

25 views 1 this week
no commentswrite comment
1 2 3 4 5
2 more votes to show rating
add to favorites
×
Save as Personal and add changes to this tab that will be seen only by you. Learn more ›
×
You can save this tab as Personal to edit and correct it or add notes. All changes will be seen only by you. Learn more »
launch autoscroll
font size
0
reset
how to read this tab
guitar tuner
edit
Autoscroll
slow
fast
+/-
esc
set tempo
stop
Artist: Lucas Hamming
Song: Write Me Again
Album: HAM (2015)

[1] - Guitar 1: Kas Lambers (twelve-string guitar)
[2] - Guitar 2: Lucas Hamming

[Intro]
(0:00-0:07)
[1]
e|-------0-----0-----0-----0---0---0-----0-----0-----0-----0-----0-----|
B|-----0-----0-----0-----0-------------0-----0-----0-----0-----0---0---|
G|---9-----8-----6-----4-----2---1---7-----6-----4-----2-----1---------|
D|---------------------------------------------------------------------|
A|---------------------------------------------------------------------|
E|---------------------------------------------------------------------|

[2]
e|---------------------------------------------------------------------|
B|---9---9-9---9-9---9-9---9-9-9-9-9-9---9-9---9-9---9-9---9-9-9-9-9---|
G|---9---9-9---9-9---9-9---9-9-9-9-9-7---7-7---7-7---7-7---7-7-7-7-7---|
D|---9---9-9---9-9---9-9---9-9-9-9-9-9---9-9---9-9---9-9---9-9-9-9-9---|
A|---7---7-7---7-7---7-7---7-7-7-7-7-7---7-7---7-7---7-7---7-7-7-7-7---|
E|---0---0-0---0-0---0-0---0-0-0-0-0-0---0-0---0-0---0-0---0-0-0-0-0---|

(0:07-0:15)
[1]
e|-------0-----0-----0-----0---0---0-----0-----0-----0-----0---|
B|-----0-----0-----0-----0-------------0-----0-----0-----0-----|
G|---9-----8-----6-----4-----2---1---7-----6-----4-----2-------|
D|-------------------------------------------------------------|
A|-------------------------------------------------------------|
E|-------------------------------------------------------------|

[2]
e|-----------------------------------------------------------------------|
B|---9---9-9---9-9---9-9---9-9-9-9-9-9---9-9---9-9---9-9---9-12-11--10---|
G|---9---9-9---9-9---9-9---9-9-9-9-9-7---7-7---7-7---7-7---7-11-10--9----|
D|---9---9-9---9-9---9-9---9-9-9-9-9-9---9-9---9-9---9-9---9-13-12--11---|
A|---7---7-7---7-7---7-7---7-7-7-7-7-7---7-7---7-7---7-7---7-11-10--9----|
E|---0---0-0---0-0---0-0---0-0-0-0-0-0---0-0---0-0---0-0---0-------------|

[Verse]
(0:15-0:23)   
"Hey girl, can't you see we've been here before..."
[2]
e|------------------------------------------------------------------------------|
B|----10--10---10-10---10--10-10----7--7----10--10--10-10---10--10-10----7--7---|
G|----9---9----9--9----9---9--9-----8--8----9---9---9--9----9---9--9-----8--8---|
D|----11--11---11-11---11--11-11----9--9----11--11--11-11---11--11-11----9--9---|
A|----9---9----9--9----9---9--9-----9--9----9---9---9--9----9---9--9-----9--9---|
E|----------------------------------7--7---------------------------------7--7---|

(0:23-0:27)
[1]
e|-------0-----0-----0-----0-------------|
B|-----0-----0-----0-----0---4--3---2----|
G|---9-----8-----6-----4-----------------|
D|---------------------------------------|
A|---------------------------------------|
E|---------------------------------------|

[2]
e|---------------------------------------|
B|---9---9-9---9-9---9-9---9-12-11--10---|
G|---9---9-9---9-9---9-9---9-11-10--9----|
D|---9---9-9---9-9---9-9---9-13-12--11---|
A|---7---7-7---7-7---7-7---7-11-10--9----|
E|---0---0-0---0-0---0-0---0-------------|

(0:27-0:35)   
"Oh, I should've known better than to mess things up..."
[1]
e|---------------------5---2--------------------------------5---2---------------|
B|----2---0----2--5-----------------4--4----2---0----2--5----------------4--4---|
G|------------------------------------------------------------------------------|
D|------------------------------------------------------------------------------|
A|------------------------------------------------------------------------------|
E|------------------------------------------------------------------------------|

[2]
e|------------------------------------------------------------------------------|
B|----10--10---10-10---10--10-10----7--7----10--10--10-10---10--10-10----7--7---|
G|----9---9----9--9----9---9--9-----8--8----9---9---9--9----9---9--9-----8--8---|
D|----11--11---11-11---11--11-11----9--9----11--11--11-11---11--11-11----9--9---|
A|----9---9----9--9----9---9--9-----9--9----9---9---9--9----9---9--9-----9--9---|
E|----------------------------------7--7---------------------------------7--7---|

(0:35-0:39) 
[1]
e|-------0-----0-----0-----0---0---0---|
B|-----0-----0-----0-----0-------------|
G|---9-----8-----6-----4-----1---------|
D|-------------------------------2-----|
A|-------------------------------------|
E|-------------------------------------|

[2]
e|-------------------------------------|
B|---9---9-9---9-9---9-9---9-9-9-9-----|
G|---9---9-9---9-9---9-9---9-9-9-9-----|
D|---9---9-9---9-9---9-9---9-9-9-9-----|
A|---7---7-7---7-7---7-7---7-7-7-7-----|
E|---0---0-0---0-0---0-0---0-0-0-0-----|

[Pre-chorus]
(0:39-0:47)   
"These days just seem to pass by..."
[1]
e|---------------------------------------------------0---------------2-----------------|
B|---------------------------------------------------0---------------0-----------------|
G|---------------------------------------------------1---------------2-----------------|
D|---------------------------------------------------2---------------1-----------------|
A|---------------------------------------------------2---------------2-----------------|
E|---------------------------------------------------0---------------------------------|

[2]
e|-------------------------------------------------------------------------------------|
B|---10-10-10-10-10-10-10-10-10-10-10-10-10-10-10-10-9-9-9-9-9-9-9-9-7-7-7-7-7-7-7-7---|
G|---9--9--9--9--9--9--9--9--9--9--9--9--9--9--9--9--9-9-9-9-9-9-9-9-8-8-8-8-8-8-8-8---|
D|---11-11-11-11-11-11-11-11-11-11-11-11-11-11-11-11-9-9-9-9-9-9-9-9-9-9-9-9-9-9-9-9---|
A|---9--9--9--9--9--9--9--9--12-12-12-12-12-12-12-12-7-7-7-7-7-7-7-7-9-9-9-9-9-9-9-9---|
E|---------------------------------------------------0-0-0-0-0-0-0-0-7-7-7-7-7-7-7-7---|

(0:47-0:55)   
"Even though it's just for a day..."
[1]
e|--------0--------0--------0-------0--------0--------0-----------------|
B|------0---0----0---0----0---0---0---0----0---0----0---0----------12---|
G|---14-------13-------11-------9-------16-------14-------13-11-13------|
D|----------------------------------------------------------------------|
A|----------------------------------------------------------------------|
E|----------------------------------------------------------------------|

[2]
e|--------0--------0--------0-------0--------0--------0-----------------|
B|------0---0----0---0----0---0---0---0----0---0----0---0---------------|
G|---2--------1-------------------------4--------2--------1-----1--4----|
D|---------------------4--------2----------------------------4----------|
A|----------------------------------------------------------------------|
E|----------------------------------------------------------------------|

[Chorus]
(0:55-0:58)   
"Would you write me again tomorrow..."
[1]
e|-------------------0---0---0----0---0---|
B|-----------------0----------------------|
G|------9-8------8-----9---8--------------|
D|---11-----11-9---------------11---9-----|
A|----------------------------------------|
E|----------------------------------------|

[2]
e|-------------------0---0-0-0-0--0-0-0---|
B|---5--5-5-5--7-7-7-0---0-0-0-2--2-2-2---|
G|---6--6-6-6--8-8-8-1---1-1-1-2--2-2-2---|
D|---7--7-7-7--9-9-9-2---2-2-2-2--2-2-2---|
A|---7--7-7-7--9-9-9-2---2-2-2-0--0-0-0---|
E|---5--5-5-5--7-7-7-0---0-0-0------------|

(0:58-1:02)   
"If I wrote you a song today..."
[1]
e|-------------------0---0---0----0---0---|
B|-----------------0----------------------|
G|------9-8------8-----9---8---7----------|
D|---11-----11-9--------------------9-----|
A|----------------------------------------|
E|----------------------------------------|

[2]
e|---2--2-2-2--2-2-2--0---0-0-0-0-0-0-0---|
B|---2--2-2-2--4-4-4--0---0-0-0-0-0-0-0---|
G|---2--2-2-2--4-4-4--1---1-1-1-1-1-1-1---|
D|---4--4-4-4--4-4-4--2---2-2-0-0-0-0-0---|
A|---4--4-4-4--2-2-2--2---2-2-2-2-2-2-2---|
E|---2--2-2-2---------0---0-0-0-0-0-0-0---|

(1:02-1:10)   
"Would you sing me back home tomorrow..."
[1]
e|-------------------0---0---0----0---0-----------------|
B|-----------------0--------------------9---------------|
G|------9-8------8-----9---8------------9--------5--7---|
D|---11-----11-9---------------11---9---7---------------|
A|------------------------------------------------------|
E|------------------------------------------------------|

[2]
e|---0--0-0-0--2-2-2-4---4-4-4--------------------------|
B|---2--2-2-2--4-4-4-5---5-5-5----------5--------5--7---|
G|---2--2-2-2--4-4-4-4---4-4-4-6----8---6--------5--7---|
D|---2--2-2-2--4-4-4-6---6-6-6-7----9---6--------5--7---|
A|---0--0-0-0--2-2-2-4---4-4-4-7----9---x--------3--5---|
E|-----------------------------5----7---5---------------|

[Post-chorus]
(1:10-1:17)
[1]
e|-------0-----0-----0-----0---0---0-----0-----0-----0-----0-------------|
B|-----0-----0-----0-----0-------------0-----0-----0-----0---4--3---2----|
G|---9-----8-----6-----4-----2---1---7-----6-----4-----2-----------------|
D|-----------------------------------------------------------------------|
A|-----------------------------------------------------------------------|
E|-----------------------------------------------------------------------|

[2]
e|-----------------------------------------------------------------------|
B|---9---9-9---9-9---9-9---9-9-9-9-9-9---9-9---9-9---9-9---9-12-11--10---|
G|---9---9-9---9-9---9-9---9-9-9-9-9-7---7-7---7-7---7-7---7-11-10--9----|
D|---9---9-9---9-9---9-9---9-9-9-9-9-9---9-9---9-9---9-9---9-13-12--11---|
A|---7---7-7---7-7---7-7---7-7-7-7-7-7---7-7---7-7---7-7---7-11-10--9----|
E|---0---0-0---0-0---0-0---0-0-0-0-0-0---0-0---0-0---0-0---0-------------|

[Verse]
(1:17-1:25)   
"I've tried to hide, close it up and put it aside..."
[1]
e|---------------------5---2--------------------------------5---2---------------|
B|----2---0----2--5-----------------4--4----2---0----2--5----------------4--4---|
G|------------------------------------------------------------------------------|
D|------------------------------------------------------------------------------|
A|------------------------------------------------------------------------------|
E|------------------------------------------------------------------------------|

[2]
e|------------------------------------------------------------------------------|
B|----10--10---10-10---10--10-10----7--7----10--10--10-10---10--10-10----7--7---|
G|----9---9----9--9----9---9--9-----8--8----9---9---9--9----9---9--9-----8--8---|
D|----11--11---11-11---11--11-11----9--9----11--11--11-11---11--11-11----9--9---|
A|----9---9----9--9----9---9--9-----9--9----9---9---9--9----9---9--9-----9--9---|
E|----------------------------------7--7---------------------------------7--7---|

(1:25-1:29)
[1]
e|-------0-----0-----0-----0-------------|
B|-----0-----0-----0-----0---4--3---2----|
G|---9-----8-----6-----4-----------------|
D|---------------------------------------|
A|---------------------------------------|
E|---------------------------------------|

[2]
e|---------------------------------------|
B|---9---9-9---9-9---9-9---9-12-11--10---|
G|---9---9-9---9-9---9-9---9-11-10--9----|
D|---9---9-9---9-9---9-9---9-13-12--11---|
A|---7---7-7---7-7---7-7---7-11-10--9----|
E|---0---0-0---0-0---0-0---0-------------|

(1:29-1:37)   
"No need to regret, 'cause my dream has been shot..."
[1]
e|---------------------5---2--------------------------------5---2---------------|
B|----2---0----2--5-----------------4--4----2---0----2--5----------------4--4---|
G|------------------------------------------------------------------------------|
D|------------------------------------------------------------------------------|
A|------------------------------------------------------------------------------|
E|------------------------------------------------------------------------------|

[2]
e|------------------------------------------------------------------------------|
B|----10--10---10-10---10--10-10----7--7----10--10--10-10---10--10-10----7--7---|
G|----9---9----9--9----9---9--9-----8--8----9---9---9--9----9---9--9-----8--8---|
D|----11--11---11-11---11--11-11----9--9----11--11--11-11---11--11-11----9--9---|
A|----9---9----9--9----9---9--9-----9--9----9---9---9--9----9---9--9-----9--9---|
E|----------------------------------7--7---------------------------------7--7---|

(1:37-1:41)
[1]
e|-------0-----0-----0-----0---0---0---|
B|-----0-----0-----0-----0-------------|
G|---9-----8-----6-----4-----1---------|
D|-------------------------------2-----|
A|-------------------------------------|
E|-------------------------------------|

[2]
e|-------------------------------------|
B|---9---9-9---9-9---9-9---9-9-9-9-----|
G|---9---9-9---9-9---9-9---9-9-9-9-----|
D|---9---9-9---9-9---9-9---9-9-9-9-----|
A|---7---7-7---7-7---7-7---7-7-7-7-----|
E|---0---0-0---0-0---0-0---0-0-0-0-----|

[Pre-chorus]
(1:41-1:49)   
"These days just seem to pass by..."
[1]
e|---------------------------------------------------0---------------2-----------------|
B|---------------------------------------------------0---------------0-----------------|
G|---------------------------------------------------1---------------2-----------------|
D|---------------------------------------------------2---------------1-----------------|
A|---------------------------------------------------2---------------2-----------------|
E|---------------------------------------------------0---------------------------------|

[2]
e|-------------------------------------------------------------------------------------|
B|---10-10-10-10-10-10-10-10-10-10-10-10-10-10-10-10-9-9-9-9-9-9-9-9-7-7-7-7-7-7-7-7---|
G|---9--9--9--9--9--9--9--9--9--9--9--9--9--9--9--9--9-9-9-9-9-9-9-9-8-8-8-8-8-8-8-8---|
D|---11-11-11-11-11-11-11-11-11-11-11-11-11-11-11-11-9-9-9-9-9-9-9-9-9-9-9-9-9-9-9-9---|
A|---9--9--9--9--9--9--9--9--12-12-12-12-12-12-12-12-7-7-7-7-7-7-7-7-9-9-9-9-9-9-9-9---|
E|---------------------------------------------------0-0-0-0-0-0-0-0-7-7-7-7-7-7-7-7---|

(1:49-1:57)   
"Even though it's just for a day..."
[1]
e|--------0--------0--------0-------0--------0--------0-----------------|
B|------0---0----0---0----0---0---0---0----0---0----0---0----------12---|
G|---14-------13-------11-------9-------16-------14-------13-11-13------|
D|----------------------------------------------------------------------|
A|----------------------------------------------------------------------|
E|----------------------------------------------------------------------|

[2]
e|--------0--------0--------0-------0--------0--------0-----------------|
B|------0---0----0---0----0---0---0---0----0---0----0---0---------------|
G|---2--------1-------------------------4--------2--------1-----1--4----|
D|---------------------4--------2----------------------------4----------|
A|----------------------------------------------------------------------|
E|----------------------------------------------------------------------|

[Chorus]
(1:57-2:00)   
"Would you write me again tomorrow..."
[1]
e|-------------------0---0---0----0---0---|
B|-----------------0----------------------|
G|------9-8------8-----9---8--------------|
D|---11-----11-9---------------11---9-----|
A|----------------------------------------|
E|----------------------------------------|

[2]
e|-------------------0---0-0-0-0--0-0-0---|
B|---5--5-5-5--7-7-7-0---0-0-0-2--2-2-2---|
G|---6--6-6-6--8-8-8-1---1-1-1-2--2-2-2---|
D|---7--7-7-7--9-9-9-2---2-2-2-2--2-2-2---|
A|---7--7-7-7--9-9-9-2---2-2-2-0--0-0-0---|
E|---5--5-5-5--7-7-7-0---0-0-0------------|

(2:00-2:05)   
"If I wrote you a song today..."
[1]
e|-------------------0---0---0----0---0---|
B|-----------------0----------------------|
G|------9-8------8-----9---8---7----------|
D|---11-----11-9--------------------9-----|
A|----------------------------------------|
E|----------------------------------------|

[2]
e|---2--2-2-2--2-2-2--0---0-0-0-0-0-0-0---|
B|---2--2-2-2--4-4-4--0---0-0-0-0-0-0-0---|
G|---2--2-2-2--4-4-4--1---1-1-1-1-1-1-1---|
D|---4--4-4-4--4-4-4--2---2-2-0-0-0-0-0---|
A|---4--4-4-4--2-2-2--2---2-2-2-2-2-2-2---|
E|---2--2-2-2---------0---0-0-0-0-0-0-0---|

(2:05-2:15)   
"Would you sing me back home tomorrow..."
[1]
e|-------------------0---0---0----0---0-----------------|
B|-----------------0--------------------9---------------|
G|------9-8------8-----9---8------------9--------5--7---|
D|---11-----11-9---------------11---9---7---------------|
A|------------------------------------------------------|
E|------------------------------------------------------|

[2]
e|---0--0-0-0--2-2-2-4---4-4-4-------------------------0-0-0-0-0-0-0-0-0-0-0-0-0-0-0---|
B|---2--2-2-2--4-4-4-5---5-5-5----------5--------5--7--x-x-x-x-x-x-x-x-x-x-x-x-x-x-x---|
G|---2--2-2-2--4-4-4-4---4-4-4-6----8---6--------5--7--9-9-9-9-9-9-9-9-9-9-9-9-9-9-9---|
D|---2--2-2-2--4-4-4-6---6-6-6-7----9---6--------5--7--9-9-9-9-9-9-9-9-9-9-9-9-9-9-9---|
A|---0--0-0-0--2-2-2-4---4-4-4-7----9---x--------3--5--7-7-7-7-7-7-7-7-7-7-7-7-7-7-7---|
E|-----------------------------5----7---5--------------0-0-0-0-0-0-0-0-0-0-0-0-0-0-0---|

[Bridge]
(2:15-2:19)   
"... can you see it..."
[1]
e|------------------------------------|
B|---7-5------------------------------|
G|-------7-6---4---4------------------|
D|---------------7--------------------|
A|------------------------------------|
E|------------------------------------|

[2]
e|-----------------0--0-0-0-0-0-0-0---|
B|---7-7---5---5---0--0-0-0-0-0-0-0---|
G|---7-7---6---6---1--1-1-1-1-1-1-1---|
D|---7-7---7---7---2--2-2-2-2-2-2-2---|
A|---5-5---7---7---2--2-2-2-2-2-2-2---|
E|---------5---5---0--0-0-0-0-0-0-0---|

(2:19-2:23)   
"... can we retrieve it..."
[1]
e|------------------------------------|
B|------------------------------------|
G|---4--------------------------------|
D|-----7-6-5--------------------------|
A|-------------7-4-7------------------|
E|------------------------------------|

[2]
e|-----------------0--0-0-0-0-0-0-0---|
B|---7-7---5---5---0--0-0-0-0-0-0-0---|
G|---7-7---6---6---1--1-1-1-1-1-1-1---|
D|---7-7---7---7---2--2-2-2-2-2-2-2---|
A|---5-5---7---7---2--2-2-2-2-2-2-2---|
E|---------5---5---0--0-0-0-0-0-0-0---|

(2:23-2:27)  
"... can you believe this..."
[1]
e|------------------------------------|
B|---7-5------------------------------|
G|-------7-6---4---4------------------|
D|---------------7--------------------|
A|------------------------------------|
E|------------------------------------|

[2]
e|-----------------0--0-0-0-0-0-0-0---|
B|---7-7---5---5---0--0-0-0-0-0-0-0---|
G|---7-7---6---6---1--1-1-1-1-1-1-1---|
D|---7-7---7---7---2--2-2-2-2-2-2-2---|
A|---5-5---7---7---2--2-2-2-2-2-2-2---|
E|---------5---5---0--0-0-0-0-0-0-0---|

(2:27-2:31)   
"unrequited love?"
[1]
e|------------------------------------|
B|------------------------------------|
G|---4--------------------------------|
D|-----7-6-5--------------------------|
A|-------------7-4--------------------|
E|------------------------------------|

[2]
e|------------------------------------|
B|---7-7---5---5----7-7-7-7-7-7-7-7---|
G|---7-7---6---6----8-8-8-8-8-8-8-8---|
D|---7-7---7---7----9-9-9-9-9-9-9-9---|
A|---5-5---7---7----9-9-9-9-9-9-9-9---|
E|---------5---5----7-7-7-7-7-7-7-7---|

[Chorus]
(2:31-2:35)   
"Would you write me again tomorrow..."
[1]
e|-----------------------0---0----0---0---|
B|----------------------------------------|
G|---------------------9---8--------------|
D|-----------------------------11---9-----|
A|----------------------------------------|
E|----------------------------------------|

[2]
e|---------------------0-0-0-0-0--0-0-0---|
B|---5---------7-------0-0-0-0-2--2-2-2---|
G|---6---------8-------1-1-1-1-2--2-2-2---|
D|---7---------9-------2-2-2-2-2--2-2-2---|
A|---7---------9-------2-2-2-2-0--0-0-0---|
E|---5---------7-------0-0-0-0------------|

(2:35-2:39)   
"If I wrote you a song today..."
[1]
e|-------------------0---0---0----0---0---|
B|-----------------0----------------------|
G|------9-8------8-----9---8---7----------|
D|---11-----11-9--------------------9-----|
A|----------------------------------------|
E|----------------------------------------|

[2]
e|---2--2-2-2--2-2-2--0---0-0-0-0-0-0-0---|
B|---2--2-2-2--4-4-4--0---0-0-0-0-0-0-0---|
G|---2--2-2-2--4-4-4--1---1-1-1-1-1-1-1---|
D|---4--4-4-4--4-4-4--2---2-2-0-0-0-0-0---|
A|---4--4-4-4--2-2-2--2---2-2-2-2-2-2-2---|
E|---2--2-2-2---------0---0-0-0-0-0-0-0---|

(2:39-2:46)   
"Would you sing me back home tomorrow..."
[1]
e|-------------------0---0---0----0---0------------------------|
B|-----------------0--------------------9----------------------|
G|------9-8------8-----9---8------------9---------------5--7---|
D|---11-----11-9---------------11---9---7----------------------|
A|-------------------------------------------------------------|
E|-------------------------------------------------------------|

[2]
e|---0--0-0-0--2-2-2-4---4-4-4---------------------------------|
B|---2--2-2-2--4-4-4-5---5-5-5----------5-5-5-5-5-5-5-5-5--7---|
G|---2--2-2-2--4-4-4-4---4-4-4-6----8---6-6-6-6-6-6-6-6-5--7---|
D|---2--2-2-2--4-4-4-6---6-6-6-7----9---6-6-6-6-6-6-6-6-5--7---|
A|---0--0-0-0--2-2-2-4---4-4-4-7----9---x-x-x-x-x-x-x-x-3--5---|
E|-----------------------------5----7---5-5-5-5-5-5-5-5--------|

(2:46-2:50)   
"Would you write me again tomorrow..."
[1]
e|-------------------0---0---0----0---0---|
B|-----------------0----------------------|
G|------9-8------8-----9---8--------------|
D|---11-----11-9---------------11---9-----|
A|----------------------------------------|
E|----------------------------------------|

[2]
e|-------------------0---0-0-0-0--0-0-0---|
B|---5--5-5-5--7-7-7-0---0-0-0-2--2-2-2---|
G|---6--6-6-6--8-8-8-1---1-1-1-2--2-2-2---|
D|---7--7-7-7--9-9-9-2---2-2-2-2--2-2-2---|
A|---7--7-7-7--9-9-9-2---2-2-2-0--0-0-0---|
E|---5--5-5-5--7-7-7-0---0-0-0------------|

(2:54-2:58)   
"If I wrote you a song today..."
[1]
e|-------------------0---0---0----0---0---|
B|-----------------0----------------------|
G|------9-8------8-----9---8---7----------|
D|---11-----11-9--------------------9-----|
A|----------------------------------------|
E|----------------------------------------|

[2]
e|---2--2-2-2--2-2-2--0---0-0-0-0-0-0-0---|
B|---2--2-2-2--4-4-4--0---0-0-0-0-0-0-0---|
G|---2--2-2-2--4-4-4--1---1-1-1-1-1-1-1---|
D|---4--4-4-4--4-4-4--2---2-2-0-0-0-0-0---|
A|---4--4-4-4--2-2-2--2---2-2-2-2-2-2-2---|
E|---2--2-2-2---------0---0-0-0-0-0-0-0---|

(2:58-3:01)   
"Would you sing me back home tomorrow..."
[1]
e|-------------------0---0---0----0---0-----------------|
B|-----------------0--------------------9---------------|
G|------9-8------8-----9---8------------9--------5--7---|
D|---11-----11-9---------------11---9---7---------------|
A|------------------------------------------------------|
E|------------------------------------------------------|

[2]
e|---0--0-0-0--2-2-2-4---4-4-4--------------------------|
B|---2--2-2-2--4-4-4-5---5-5-5----------5--------5--7---|
G|---2--2-2-2--4-4-4-4---4-4-4-6----8---6--------5--7---|
D|---2--2-2-2--4-4-4-6---6-6-6-7----9---6--------5--7---|
A|---0--0-0-0--2-2-2-4---4-4-4-7----9---x--------3--5---|
E|-----------------------------5----7---5---------------|

[Outro]
(3:01-3:11)
[1]
e|-------0-----0-----0-0---|
B|-----0-----0-----0---0---|
G|---9-----8-----6-----1---|
D|---------------------2---|
A|---------------------2---|
E|---------------------0---|

[2]
e|-------------------------|
B|---9---9-9---9-9---9-9---|
G|---9---9-9---9-9---9-9---|
D|---9---9-9---9-9---9-9---|
A|---7---7-7---7-7---7-7---|
E|---0---0-0---0-0---0-0---|


************************************

| x  Dead note

************************************
Suggest correction
Creating personal tab
Creating personal tab
You can edit any tab online and save it as your Personal.

You can edit, replace or remove any tab part or add personal notes – all changes will be seen only by you.

Personal tabs can be accessed anytime from any device, even offline.
Learn more »
Give kudos to tab author, rate the tab!
1 2 3 4 5
comments
print report bad tab
guest
You may want to rate the tab now too:
select rating
Wanna post a correction for this tab? Suggest correction