Oops, an error
Loading. Please wait.

Diamond State Heartbreak Chords

2,889 views 1 this week
no commentswrite comment
1 2 3 4 5
please rate
add to favorites
launch autoscroll
font size
0
reset
transpose
0
reset
display chords
guitar tuner
Autoscroll
slow
fast
+/-
esc
set tempo
stop
Help us to improve Ultimate-Guitar.com Take our survey!
×
Author
-------------------------------------------------------------------------------
                             diamond state heartbreak - Lucero
-------------------------------------------------------------------------------
Tabbed by: gill

Tuning: Standard

Intro\Main Riff

     G   C                      Em   C   D
e|---3---3----------------------0----0----3----------------------------------|
B|---3---3----5p4-4-4p2p0-------0----1----2----5p4-4-4p2p0-------------------|
G|---0---0------------------x2--0----0----3----------------------------------|
D|---0---2----------------------2----2----0----------------------------------|
A|---2---3----------------------2----3----0----------------------------------|
E|---3--------------------------0----3---------------------------------------|

G                C   
I don't want to see you
G               C
Crying like that
Em                  C                D
Not when you're the one who broke my heart
G              C
Wish I didn't want you
G               C   
Didn't want you back
Em              C               D
But you were my biggest love so far
                 C        Am
And you broke my heart
             G
You broke my heart

C      Em

G            C
I try not to call you
G                C
Wonder where you are
Em                   C              D    
I still glimpse your eyes up in the stars
G              C
But now when I see you
G             C
I feel like a fool
Em                  C               D
Wish you would have seen my fall so hard
              C      Am
I fell like a star
                 G   
and you broke my heart

C   Em

Intro x2 (Start lyrics on the last D chord of the progression)

D           C      Am
Fell like a star
                 G       
And you broke my heart

C   Em
             C 
You broke my heart



Suggest correction new What's this?
You can suggest a correction to this tab. Community and Mods will review your correction and vote to approve or reject it.
comments
We did not receive enough feedback on this tab! Please rate:
print report bad tab
1 2 3 4 5
guest
You may want to rate the tab now too:
select rating
Please do not post tabs as comments. Select "correction" instead!