Oops, an error
Loading. Please wait.

Drink Till Were Gone Tab

version 1
version 1

Whole song

by Lucero
37,564 views 24 this week
2 commentsread comments
1 2 3 4 5
x 14
add to favorites
launch autoscroll
font size
0
reset
how to read this tab
guitar tuner
×
Best way to learn
"Drink Till Were Gone"
Autoscroll
slow
fast
+/-
esc
set tempo
stop
[Main Riff]
E|------------------------------------------------|
B|------------------------------------------------|
G|------------------------------------------------|
D|---2---4-2-0---------2--------------------------|
A|-0---00------4----44---------------0-2----22-4-2|
E|------------------------02----02-4--------------|

[Chorus]
    D       F#m         E
E|---2---------2---------0----|
B|---3---------2---------0----|
G|---2---------2---------1----|
D|---0---------4---------2----|
A|---x---------x---------2----|
E|---x---------x---------0----|

[Main Riff] (x8)
E|------------------------------------------------|
B|------------------------------------------------|
G|------------------------------------------------|
D|---2---4-2-0---------2--------------------------|
A|-0---00------4----44---------------0-2----22-4-2|
E|------------------------02----02-4--------------|

[Verse]
Life is short in spite of your plans
So tell the girls they're pretty while you can
Cause one day they're gone, and all ya got left
is some empty bottles and an ol country song
that plays on and on
I've wasted my time with these cigarettes
and these ashes are all I got left
I watch this old town and nothing's left for me
Washed down stream and into the sea

[Chorus]
                   D                     F#m
Cause this big old river will kill us in time
                           E                        D
Till then we'll drink it's weight in cheep beer and wine
                     F#m                  E
We can drink just as fast as the river is strong

And we'll drink till we're gone

[Main Riff] (x4)
E|------------------------------------------------|
B|------------------------------------------------|
G|------------------------------------------------|
D|---2---4-2-0---------2--------------------------|
A|-0---00------4----44---------------0-2----22-4-2|
E|------------------------02----02-4--------------|

We'll drink till we're gone
Life is short in spite of your plans
So tell the girls they're pretty while you can
Cause one day they're gone, and all ya got left
is some empty bottles and an ol country song

[Chorus]
                   D                     F#m
Cause this big old river will kill us in time
                           E                        D
Till then we'll drink it's weight in cheep beer and wine
                     F#m                  E
We can drink just as fast as the river is strong

And we'll drink till we're gone

[Main Riff] (x2)
E|------------------------------------------------|
B|------------------------------------------------|
G|------------------------------------------------|
D|---2---4-2-0---------2--------------------------|
A|-0---00------4----44---------------0-2----22-4-2|
E|------------------------02----02-4--------------|

We'll drink till we're gone



************************************

| x  Dead note

************************************
Suggest correction
comments
print report bad tab
2 comments total.
0 reply
Buddhist2k 21 May 19, 2012 09:29 AM

i am somehow hearing the progressiong A > C#m > F#m > B in the verse

0 reply
J.Kninja 43 Mar 09, 2013 11:41 AM

That is the chord progression for the verse, if you wanted to strum them.

guest
You may want to rate the tab now too:
select rating
Wanna post a correction for this tab? Suggest correction