Oops, an error
Loading. Please wait.

Into Your Eyes Tab

5,197 views 6 this week
1 commentread comment
1 2 3 4 5
please rate
add to favorites
launch autoscroll
font size
0
reset
how to read this tab
guitar tuner
Autoscroll
slow
fast
+/-
esc
set tempo
stop
Help us to improve Ultimate-Guitar.com Take our survey!
×
Contributor
Difficulty
novice
-------------------------------------------------------------------------------
                             Into Your Eyes - Lucero
-------------------------------------------------------------------------------
Tabbed by:Chris
Email:deerkillerdf2

Tuning:Standard (EADGBe)

Second tab overall but if its not 100% correct, its pretty close.  Enjoy the tab and 
you had fun learning it!!

00:00-00:10
e|---------------------------------------------------------------------------|
B|-----3-3---------3-3---------3-3---------3-3-------------------------------|
G|---2-----2-----2-----2-----2-----2-----2-----2-----------------------------|
D|-0---------0-0---------0-0---------0-0---------0-0-------------------------|
A|---------------------------------------------------------------------------|
E|---------------------------------------------------------------------------|

00:10-00:20
e|--------------------------------------------------------------------------|
B|-----3-----3-----3-----3-----3-----3-----3-----3--------------------------|
G|---2-----2-----2-----2-----2-----2-----2-----2----------------------------|
D|-0-----------0-----------0-----------0------------------------------------|
A|-------0-----------0-----------0-----------0------------------------------|
E|--------------------------------------------------------------------------|

00:20-00:31
e|--------------------------------------------------------------------------|
B|--------3-----------3-----------3-----3-----3-----3-----------------------|
G|------0---0-------0---0-------2-----2-----2-----2-------------------------|
D|----0-------0---0-------0---0-----------0---------------------------------|
A|----------------------------------0-----------0---------------------------|
E|--3-----------3-----------------------------------------------------------|

00:31-00:41
e|--------------------------------------------------------------------------|
B|----------------------------------3-----------3---------------------------|
G|------2-2---------2-2-----------0---0-------0---0-------------------------|
D|----0-----0-----0-----0-------0-------0---0-------0-----------------------|
A|--0---------0-0---------0-------------------------------------------------|
E|----------------------------3-----------3-----------3---------------------|

00:41-00:47
e|---------------------------------------------------------------------------|
B|-----3-3---------3-3-------------------------------------------------------|
G|---2-----2-----2-----2-----------------------------------------------------|
D|-0---------0-0---------0---------------------------------------------------|
A|---------------------------------------------------------------------------|
E|---------------------------------------------------------------------------|

00:47-00:57
e|--------------------------------------------------------------------------|
B|-----3-----3-----3-----3-----3-----3-----3-----3--------------------------|
G|---2-----2-----2-----2-----2-----2-----2-----2----------------------------|
D|-0-----------0-----------0-----------0------------------------------------|
A|-------0-----------0-----------0-----------0------------------------------|
E|--------------------------------------------------------------------------|

00:57-01:07
e|--------------------------------------------------------------------------|
B|--------3-----------3------------3-3---------3-3--------------------------|
G|------0---0-------0---0--------2-----2-----2-----2------------------------|
D|----0-------0---0-------0----0---------0-0---------0----------------------|
A|--------------------------------------------------------------------------|
E|--3-----------3-----------------------------------------------------------|

01:07-01:18
e|--------------------------------------------------------------------------|
B|----------------------------------3-----------3---------------------------|
G|------2-2---------2-2-----------0---0-------0---0-------------------------|
D|----0-----0-----0-----0-------0-------0---0-------0-----------------------|
A|--0---------0-0---------0-------------------------------------------------|
E|----------------------------3-----------3---------------------------------|

01:18-01:28
e|--------------------------------------------------------------------------|
B|-----3-3---------3-3--------------3-----------3---------------------------|
G|---2-----2-----2-----2----------0---0-------0---0-------------------------|
D|-0---------0-0---------0------0-------0---0-------0-----------------------|
A|--------------------------------------------------------------------------|
E|----------------------------3-----------3---------------------------------|

01:28-01:33
e|--------------------------------------------------------------------------|
B|-----3-3---------3-3------------------------------------------------------|
G|---2-----2-----2-----2----------------------------------------------------|
D|-0---------0-0---------0--------------------------------------------------|
A|--------------------------------------------------------------------------|
E|--------------------------------------------------------------------------|

01:33-01:44
e|--------------------------------------------------------------------------|
B|----------------------------------3-----------3---------------------------|
G|------2-2---------2-2-----------0---0-------0---0-------------------------|
D|----0-----0-----0-----0-------0-------0---0-------0-----------------------|
A|--0---------0-0---------0-------------------------------------------------|
E|----------------------------3-----------3---------------------------------|

01:44-01:49
e|--------------------------------------------------------------------------|
B|-----3-3---------3-3------------------------------------------------------|
G|---2-----2-----2-----2----------------------------------------------------|
D|-0---------0-0---------0--------------------------------------------------|
A|--------------------------------------------------------------------------|
E|--------------------------------------------------------------------------|

01:49-02:00
e|--------------------------------------------------------------------------|
B|----------------------------------3-----------3---------------------------|
G|------2-2---------2-2-----------0---0-------0---0-------------------------|
D|----0-----0-----0-----0-------0-------0---0-------0-----------------------|
A|--0---------0-0---------0-------------------------------------------------|
E|----------------------------3-----------3---------------------------------|

02:00-02:13
e|--------------------------------------------------------------------------|
B|-----3-3---------3-3---------3--------------------------------------------|
G|---2-----2-----2-----2-------2--------------------------------------------|
D|-0---------0-0---------0-----0--------------------------------------------|
A|--------------------------------------------------------------------------|
E|--------------------------------------------------------------------------|
Suggest correction new What's this?
You can suggest a correction to this tab. Community and Mods will review your correction and vote to approve or reject it.
comments
We did not receive enough feedback on this tab! Please rate:
print report bad tab
1 2 3 4 5
1 comment total.
0 reply
timherold 491 wrote on January 7 2010, 12:30 pm

the other guitar seems to be playing something to this effect:

e|---0-2-5---5-2---2-5---5-2---2-0---0-2---2-0---0-2--|
B|-3--------------------------------------------------|
G|----------------------------------------------------|
D|----------------------------------------------------|
A|----------------------------------------------------|
E|----------------------------------------------------|

guest
You may want to rate the tab now too:
select rating
Please do not post tabs as comments. Select "correction" instead!