Oops, an error
Loading. Please wait.

Kiss The Bottle tab

by Lucero
39,835 views 51 this week
4 commentsread comments
1 2 3 4 5
x 17
add to favorites
×
Save as Personal and add changes to this tab that will be seen only by you. Learn more ›
×
You can save this tab as Personal to edit and correct it or add notes. All changes will be seen only by you. Learn more »
launch autoscroll
font size
0
reset
how to read this tab
guitar tuner
edit
Autoscroll
slow
fast
+/-
esc
set tempo
stop
Author
Difficulty
----------------------------------------------------------------------------
                             KISS THE BOTTLE - Lucero
----------------------------------------------------------------------------

Tabbed by: Adam Koehler
Email: adamkoehler@gmail.com

Tuning: Standard [EADGBe]

This is my first tab so please email me any corrections or if you need help. Leave 
too! peace.

I just updated it so now it's better than ever!

This usually sounds best in the open position, But sometimes they play with a capo on 
second fret during live shows.
At one of the shows i saw they played it open, but at another they used the capo so they 
lead in to another song
without stopping

 Guitar 1: Intro/ Chorus
e|------------------------------------------------------------|
B|----------------------0------------------------0------------|
G|---2hp---2hp---2hp--------2hp---2hp---2hp----2----2bp0------|
D|------------------------------------------------------------|
A|------------------------3-----3-----3-----3-----------------|
E|-3-----3-----3-----3----------------------------------------|

Guitar 2: (plays end of 1st and all of 2nd time through intro with guitar 1 with a capo
the two. He plays the chord positions below but instead of playing the chord, he picks
the a string down to the high e and then the b string.) so a d chord would be as follows:
e|------------------2---------|
a|--------------3-------3-----|
G|----------2-----------------|
D|------0---------------------|
A|---0------------------------|
E|----------------------------|

Guitar 3: (He just strums these with a capo on the 2, sometimes he doesn't when he plays it
live)

g                     em
it gets loneliest at night
                     d
down at the liquor store
             c
beneath the neon sky

our moonlight
g                                    em
six a.m. the floor comes alive with lice
                       d
the pans dried up so tight
                c
with hardened beans
          g  f#
were hungry
       em             d
so i lean on you sometimes
         c
just to see youre still there
g                                   em
youre feet cant take the weight of one
           d
much less two
        c
we hit concrete
em            g             c
how were we born into this mess
em         g            a         c
i know i painted you a prettier picture,baby
em           g            c
but we were run out on a rail
em              g           a     c
fell from the wagon to the night train

CHORUS  PLAY 4X .

i kissed the bottle
i should 've been kissing you
you wake up to an empty night
with tears for two

g                         em
cigarettes they fill the gaps
              d
in our empty days
                c
in our broken teeth
g                            em
say mister, can you spare a dime
                           d
some change could make a change
                c
could buy some time
                   g  f#
some freedom
       em              d
or an ear to hear my story
                 c
it's all i've got
            g                         em
my fiction beats the hell out of my truth
                       d
a palm upturned burnt blue
             c
dont call it sunburn
em            g             c
you've been shaking on the job
g          a         em            c
just one drink ahead of your past
 em           g              c
there's a white light coming up
g             a             em          c
you draw the blinds hoping it'll pass

            
            
Suggest correction
Creating personal tab
Creating personal tab
You can edit any tab online and save it as your Personal.

You can edit, replace or remove any tab part or add personal notes – all changes will be seen only by you.

Personal tabs can be accessed anytime from any device, even offline.
Learn more »
comments
print report bad tab
4 comments total. Showing first comments.
+1 reply
solitarycheese 10 Jun 28, 2006 06:08 PM

Everythings good, except the E is Em and at the end of the main riff it goes (at least on the album version):

e|------------------------------------------------------------|
B|----------------------0-------------------------------------|
G|---2hp---2hp---2hp--------2hp---2hp---2hp----2-4b-2bp0------|
D|------------------------------------------------------------|
A|------------------------3-----3-----3-----3-----------------|
E|-3-----3-----3-----3----------------------------------------|

with a slight bend on the 4th fret and a slight bend and a pull off on the 2 (the 2bp0). Good tab.

+3 reply
solitarycheese 10 Jul 01, 2006 08:25 PM

Oh and one last thing in the part where it goes G F# Em I think rather than playing a full F# chord its a run down from G to Em, which looks like this


e|--3------3----0------------------------------------------------|
B|--0------0----0------------------------------------------------|
G|--0------0----0------------------------------------------------|
D|--0------0----2------------------------------------------------|
A|--2------0----2------------------------------------------------|
E|--3------2----0------------------------------------------------|

0 reply
Luke the Mighty 10 Jul 27, 2007 03:56 PM

I've never actually heard this cover. The original is amazing, though, and I do enjoy this band. This tab sounds great acoustic. Well done, though I do agree with solitary cheese. Nice work.

guest
You may want to rate the tab now too:
select rating
Wanna post a correction for this tab? Suggest correction