Oops, an error
Loading. Please wait.

My Best Girl Tab

7,883 views 15 this week
no commentswrite comment
1 2 3 4 5
excellent!
x 4
add to favorites
launch autoscroll
font size
0
reset
how to read this tab
guitar tuner
Tab Pro tools
  • play this tab
  • loop segment
  • change instrument
  • show fretboard
  • metronome
Autoscroll
slow
fast
+/-
esc
set tempo
stop
Contributor
Difficulty
novice
My Best Girl - Lucero
Standard Tuning


There are a couple ways to play this song. You can either just play all of the chords as
you normally would or you can leave the bottom fingers on the G down for the song. This
is how I play it, however, the chords by themselves sound good too. I’ll just show how I 
play the chords for the verse and you can get the picture from that. I also did some of
the fills that happen throughout the song. They are numbered and put into the song. I 
Hope this works for you!!! Enjoy!!!

|-3--3--3--2--3--3--3-----|
|-3--3--3--3--3--3--3-----|
|-0--0--0--2--0--0--0-----|
|-0--0--2--0--2--0--2-----|
|-2-----2-----3--2--2-----|
|-3--2--0-----------0-----|

Verse:
      G              F#/G
i'm a sucker for some pretty eyes
           Em                   D
but they're going home with some other boy tonight
        C
hell, i guess i'll be fine
B/G                               Em
'cause there's one girl whose all mine
      G                          F#/G
she's seen it before, and she'll see it again
           Em                D
'cause that other girls going home with him
         C               B/G            Em
and i'll come back to her and she don't mind


Chorus:
G					F#/G
she's my best girl, she’s got six strings
    Em    				D
she knows all about these, heartbreakin things
               C
and though her eyes might not shine
B/G                 Em
she's always by my side
            A		   C
hell, she's all mine, for all night
         G    F#/G    Em
she's my best girl by far
      A		  C
she's all mine, for all night
    G      F#/G  Em    D  C
and she'll never break my heart


Verse 2:
     G                   F#/G
well she don't care if i come home late
      Em                    D
or if i don't come home for seven long days
    C                  B/G                 Em
she knows that i'm hers and she knows to wait
G                           F#/G
she knows those other girls just won't last
Em                    D			   C		B/G
she knows i'll always come on back to her
                    Em
she's all that i've got


Chorus 2:
G					F#/G
she's my best girl, she’s got six strings
    Em    				D
she knows all about these, heartbreakin things
               C
and though her eyes might not shine
B/G                 Em
she's always by my side
            A		   C
hell, she's all mine, for all night
         G    F#/G    Em
she's my best girl by far
         G		F#/G	Em
The only girl a boy can trust
D	  C
Is his guitar

Outro Verse:
G					F#/G
she's my best girl, she’s got six strings
    Em    				D
she knows all about these heartbreakin things
               C
and though her eyes might not shine
B/G                 Em
she's always by my side
       G
no her eyes might not shine, but
F#/G               Em
at least she's all mine

 This is for the first verse starting after “she seen it before”
|---------------------|------------------------|------3--5-5b--3---------------------------|
|-----------3--5--3---|------------------------|-3--5--------------3--3-3h5--5-5-3---------|
|--0--2--4------------|--2--2--2/4--4-4-2------|-----------------------------------2--2/4--|
|---------------------|------------------------|-------------------------------------------|
|---------------------|------------------------|-------------------------------------------|
|---------------------|------------------------|-------------------------------------------|

This is for the second verse starting after “she knows those other girls”
|----------------------------|------3--5-5b-3--------------------------|
|--3-5b-3--------------------|-3--5-----------3--3-3h5---5-5-3---------|
|-----------2-2-2/4---4-4-2--|---------------------------------2-2/4---|
|----------------------------|-----------------------------------------|
|----------------------------|-----------------------------------------|
|----------------------------|-----------------------------------------|

This is for the outro verse starting after “Though her eyes might not shine”
|------3--5-5b-3----------------------|-------3--5-5b-3--5-5-5/7-------|
|-3--5-----------3-3-3h5--5-5-3-------|--3--5--------------------------|
|------------------------------2-2/4--|--------------------------------|
|-------------------------------------|--------------------------------|
|-------------------------------------|--------------------------------|
|-------------------------------------|--------------------------------|

This is for after the first chorus right after “break my heart”
|--------------|--------3---------------|
|--------------|---3/5-----3/5---3------|
|----------0---|------------------------|
|---0--0h2-----|------------------------|
|--------------|------------------------|
|--------------|------------------------|

This is for after the second chorus right after “is his guitar”
|--------------|---------3-------------------------|
|--------------|---/3--5---5--3--5---3/5--3--------|
|---------0----|----------------------------4------|
|--0--0h2------|-----------------------------------|
|--------------|-----------------------------------|
|--------------|-----------------------------------|
comments
print report bad tab
I want to post or [tab]
guest
You may want to rate the tab now too:
select rating
Please do not post tabs as comments. Select "correction" instead!