Oops, an error
Loading. Please wait.

Ci Sei Sempre Stata Tab

17,940 views 21 this week
no commentswrite comment
1 2 3 4 5
please rate
add to favorites
launch autoscroll
font size
0
reset
how to read this tab
guitar tuner
Autoscroll
slow
fast
+/-
esc
set tempo
stop
Help us to improve Ultimate-Guitar.com Take our survey!
×
Tia (Borgo)
Solo Ci Sei Sempre Stata - Ligabue
Suona Bene...


e|------------------------------------------12-----------------------------|
B|--7b8b7-5---7---7b8b7-5---/10—8p9-8p9--/12-------------------------------|
G|----------6-------------6--------------------11b13b11-9-11---------------|
D|-----------------------------------------------------------9-9-----------|
A|-------------------------------------------------------------------------|
E|-------------------------------------------------------------------------|

e|---------------------------------------12-12-14-16-17/19-17p16-----------|
B|--7b8b7-5--7---7b8b7-5--/10—8p9-8p9--/12------------------------19-------|
G|---------6------------6--------------------------------------------------|
D|-------------------------------------------------------------------------|
A|-------------------------------------------------------------------------|
E|-------------------------------------------------------------------------|

e|-------------------------------------12-12----12-12----------------------|
B|--17-19b21-19b22-19b21--17-19-17--/14------/14------12p14p12-------------|
G|-------------------------------------------------------------13-11-9-----|
D|-------------------------------------------------------------------------|
A|-------------------------------------------------------------------------|
E|-------------------------------------------------------------------------|
                            sweep
e|------------------------------9-12p9----14p12-12p9-----------------------|
B|----------------------------10------10p9----------10p9-------------------|
G|--11-11b13b11-11-13-------11--------------------------11p9---------------|
D|--------------------9-9-----------------------------------11--7-9-/11-11-|
A|-------------------------------------------------------------------------|
E|-------------------------------------------------------------------------|
                          sweep
e|----------------------------16-17p16-17p16-17b19b17p16---------------------|
B|------9-12b14b12-9--------17--------------------------17b19----------------|
G|--9p11------------11----18-------------------------------------------------|
D|---------------------------------------------------------------------------|
A|---------------------------------------------------------------------------|
E|---------------------------------------------------------------------------|

e|-------------------------------------------------------------------------|
B|-------------------------------------------------------------------------|
G|--4-/11---------------4--------------------------------------------------|
D|--------9-9--/4-------4--------------------------------------------------|
A|----------------2--2--2--------------------------------------------------|
E|-------------------------------------------------------------------------|
Suggest correction
Give kudos to tab author, rate the tab!
1 2 3 4 5
comments
print report bad tab
guest
You may want to rate the tab now too:
select rating
Please do not post tabs as comments. Select "correction" instead!