Oops, an error
Loading. Please wait.

Soy Un Inconciente Tab

56 views 3 this week
no commentswrite comment
1 2 3 4 5
3 more votes to show rating
add to favorites
launch autoscroll
font size
0
reset
how to read this tab
guitar tuner
Autoscroll
slow
fast
+/-
esc
set tempo
stop
Help us to improve Ultimate-Guitar.com Take our survey!
×
E:-------10-12-13-12-10-12-13--------|
B:-10-10----------------------10-11--|
G:-----------------------------------|
D:-----------------------------------|
A:-----------------------------------|
E:-----------------------------------|
INTRO:

E:-------9-10-12-10-9-10-12----------|
B:-10-10--------------------10-11-10-|
G:-----------------------------------|
D:-----------------------------------|
A:-----------------------------------|
E:-----------------------------------|


E:-10-10-10---10-12-13-10--10-12-13-10-9-9-10-12--10--|
B:----------10-----------10---------------------------|
G:----------------------------------------------------|
D:----------------------------------------------------|
A:----------------------------------------------------|
E:----------------------------------------------------|


[ch]Dm                                [ch]Gm[/ch]  LA[/ch]
Inconscientemente estoy pensando en ti
             [ch]Dm[/ch]
  Estoy bloqueado
                [ch]Gm  LA[/ch]
 Como viene la vida
                [ch]Dm[/ch]
No le encuentro salida
                       [ch]A7[/ch]                [ch]Dm[/ch]
Estoy Jhoqueado estoy enamorado tu estas en mi
                                 [ch]Gm  LA[/ch]             [ch]Dm[/ch]
 Si con esta onda siento niso en vos       me miran raro
               [ch]Gm   LA[/ch]              [ch]Dm[/ch]
Y no creen mis amigos que me pasa contigo
           [ch]Gm         LA7[/ch]              [ch]Dm[/ch]  [ch]C#[/ch]
En todas partes veo tu figura siento tu calor

Estribillo
[ch]C               [ch]F                    LA7[/ch]               REm[/ch]
Alucinado con tu pensamiento vivo encadenado a este sufrimiento

[ch]C                      [ch]F             LA7[/ch]               REm[/ch]
Obsesionado con esta locura ya no se vivir me falta tu ternura
                        [ch]A7[/ch]                 [ch]Dm[/ch]
Estoy bloqueado estoy enamorado solo pienso en ti


[ch]A7[/ch]                   [ch]Dm[/ch]
La idea de tu amor me quema
[ch]A7[/ch]                   [ch]Dm[/ch]
La idea de tu amor me quema

E:-1-1-1-1-0-0-1-3--------------|
B:-----------------1-3-1-1------|      (PUNTEO ESCRIBILLO)
G:------------------------------|
D:------------------------------|
A:------------------------------|
E:------------------------------|

INTRO DE NUEVO
[ch]Dm                                [ch]Gm[/ch]  LA[/ch]
Inconscientemente estoy pensando en ti
           [ch]Dm[/ch]
Estoy soñando
                  [ch]Gm  LA[/ch]
Se me pasan los días
                    [ch]Dm[/ch]
Y no le encuentro salida
            [ch]Gm              LA7[/ch]                  [ch]Dm[/ch]  [ch]C#[/ch]
Es que no quiero perder la esperanza de que vuelvas tu

Alucinado con tu pensamiento vivo encadenado a este sufrimiento
Obsesionado con esta locura ya no se vivir me falta tu ternura
Estoy bloqueado estoy enamorado solo pienso en ti  (dos veces)


[ch]C                     FA[/ch]
Alucinado estoy obsesionado estoy
[ch]A7[/ch]                   [ch]Dm[/ch]
La idea de tu amor me quema (x3)

(PUNTEO ESCRIBILLO)
Suggest correction
Give kudos to tab author, rate the tab!
1 2 3 4 5
comments
print report bad tab
guest
You may want to rate the tab now too:
select rating
Wanna post a correction for this tab? Suggest correction