Oops, an error
Loading. Please wait.

Izrael tab

version 1
version 1

Whole song

Interactive

by Lucifer
46 views 1 this week
no commentswrite comment
1 2 3 4 5
3 more votes to show rating
add to favorites
×
Save as Personal and add changes to this tab that will be seen only by you. Learn more ›
×
You can save this tab as Personal to edit and correct it or add notes. All changes will be seen only by you. Learn more »
launch autoscroll
font size
0
reset
how to read this tab
guitar tuner
edit
Autoscroll
slow
fast
+/-
esc
set tempo
stop
[Intro]
C#|-----------------------------------|-----------------------------------|
G#|-----------------------------------|-----------------------------------|
E |-----------------------------------|-----------------------------------|
B |---------------------------6-------|---6--/9-------9~~~9~~~~-----------|
F#|---6-----------6---6-------4-------|---4--/7-------7~~~7~~~~-----------|
C#|---4-----------4---4---------------|-----------------------------------|
  |                                   |                                   |
C#|-----------------------------------|-----------------------------------|
G#|-----------------------------------|-----------------------------------|
E |-----------------------------------|-----------------------------------|
B |--10----------10--10------11-------|--11-/18------18--18~~~~-----------|
F#|-----------------------------------|-----------------------------------|
C#|-----------------------------------|-----------------------------------|

C#|-----------------------------------|-----------------------------------|
G#|-----------------------------------|-----------------------------------|
E |-----------------------------------|-----------------------------------|
B |---4-----------4---4-------6-------|---6--/8-------8~~~8~~~~-----------|
F#|---2-----------2---2-------4-------|---4--/6-------6~~~6~~~~-----------|
C#|-----------------------------------|-----------------------------------|
  |                                   |                                   |
C#|-----------------------------------|-----------------------------------|
G#|-----------------------------------|--12--11-----11b12-11~~~~----------|
E |--11----------11--11------13-------|-----------------------------------|
B |-----------------------------------|-----------------------------------|
F#|-----------------------------------|-----------------------------------|
C#|-----------------------------------|-----------------------------------|

C#|-----------------------------------|-----------------------------------|
G#|-----------------------------------|-----------------------------------|
E |-----------------------------------|-----------------------------------|
B |---------------------------6-------|---6--/9-------9~~~9~~~~-----------|
F#|---6-----------6---6-------4-------|---4--/7-------7~~~7~~~~-----------|
C#|---4-----------4---4---------------|-----------------------------------|
  |                                   |                                   |
C#|-----------------------------------|-----------------------------------|
G#|-----------------------------------|-----------------------------------|
E |-----------------------------------|-----------------------------------|
B |--10----------10--10------11-------|--11-/18------18--18~~~~-----------|
F#|-----------------------------------|-----------------------------------|
C#|-----------------------------------|-----------------------------------|

C#|-----------------------------------|-----------------------------------|
G#|-----------------------------------|-----------------------------------|
E |-----------------------------------|-----------------------------------|
B |---4-----------4-----------4-------|---4--/6-------6~~~6~~~~-----------|
F#|---2-----------2---4-------2-------|---2--/4-------4~~~4~~~~-----------|
C#|-------------------2---------------|-----------------------------------|
  |                                   |                                   |
C#|-----------------------------------|-----------------------------------|
G#|-----------------------------------|-----------------------------------|
E |--11----------11---9------11-------|--11--10-----10b11-10~~~~----------|
B |-----------------------------------|-----------------------------------|
F#|-----------------------------------|-----------------------------------|
C#|-----------------------------------|-----------------------------------|

[Verse]
C#|-----------------------------------|-----------------------------------|
G#|-----------------------------------|-----------------------------------|
E |-----------------------------------|-----------------------------------|
B |--10-----------9-------------------|--10-/12-------9-------------------|
F#|--12----------10-------------------|--12-/14------10-------------------|
C#|---0-----------0-------------------|---0-----------0-------------------|

C#|-----------------------------------|-----------------------------------|
G#|-----------------------------------|-----------------------------------|
E |-----------------------------------|-----------------------------------|
B |--10-----------9--------------14---|-------7-------7---7---9---9-------|
F#|--12----------10--------------15---|-------9-------9---9--10--10-------|
C#|---0-----------0---------------0---|-------0-------0---0---0---0-------|

[Chorus]
C#|-----------------------------------|-----------------------------------|
G#|-----------------------------------|-----------------------------------|
E |o----------------------------------|----------------------------------o|
B |o----------------------------------|----------------------------------o| ×2
F#|-------9--11--12-------7---9--10---|-----------------------------------|
C#|---0---7---9--10-------5---7---8---|-----------------------------------|

C#|-----------------------------------|-----------------------------------|
G#|-----------------------------------|-----------------------------------|
E |-----------------------------------|-----------------------------------|
B |-----------6---7-------------------|-----------------------------------|
F#|-------5---4---5-------7---9--10---|-----------------------------------|
C#|---0---3---------------5---7---8---|-----------------------------------|

C#|-----------------------------------|-----------------------------------|
G#|-----------------------------------|-----------------------------------|
E |-----------------------------------|-----------------------------------|
B |-----------6---7-------------------|-----------------------------------|
F#|-------5---4---5---------------7---|-----------------------------------|
C#|---0---3---------------5---7-------|-----------------------------------|

C#|-----------------------------------|-----------------------------------|
G#|-----------------------------------|-----------------------------------|
E |-----------------------------------|-----------------------------------|
B |-----------6---7-------------------|-----------------------------------|
F#|-------5---4---5-------------------|-----------------------------------|
C#|---0---3---------------5---7---8---|-----------------------------------|

[Bridge]
C#|-------------------0---------------|-----------------------------------|
G#|-----------0-----------0-----------|-------------------0---------------|
E |-------5-------5-----------5-------|-----------5-----------5-----------|
B |---7---------------------------7---|-------7-------7-----------7-------|
F#|-----------------------------------|---8---------------------------8---|
C#|-----------------------------------|-----------------------------------|

C#|-------------------0---------------|-----------------------------------|
G#|-----------0-----------0-----------|-----------------------------------|
E |-------5-------5-----------5-------|-----------------------------------|
B |---7---------------------------7---|-----------------------------------|
F#|-----------------------------------|-----------------------------------|
C#|-----------------------------------|-----------------------------------|
  |                                   |                                   |
C#|-----------------------------------|-----------------------------------|
G#|-----------------------------------|---7--b8--r7---5------b6--r5~~~~---|
E |-----------------------------------|-----------------------------------|
B |-----------------------------------|-----------------------------------|
F#|-----------------------------------|-----------------------------------|
C#|-----------------------------------|-----------------------------------|
  |                                   |                                   |
C#|-----------------------------------|-----------------------------------|
G#|-----------------------------------|-----------------------------------|
E |-----------------------------------|---7--b9--r7---6------b7--r6~~~~---|
B |-----------------------------------|-----------------------------------|
F#|-----------------------------------|-----------------------------------|
C#|-----------------------------------|-----------------------------------|

C#|-------------------0---------------|-----------------------------------|
G#|-----------0-----------0-----------|-------------------0---------------|
E |-------5-------5-----------5-------|-----------5-----------5-----------|
B |---7---------------------------7---|-------7-------7-----------7-------|
F#|-----------------------------------|---8---------------------------8---|
C#|-----------------------------------|-----------------------------------|


C#|-------------------0---------------|-----------------------------------|
G#|-----------0-----------0-----------|-----------------------------------|
E |-------5-------5-----------5-------|-----------------------------------|
B |---7---------------------------7---|-----------------------------------|
F#|-----------------------------------|-----------------------------------|
C#|-----------------------------------|-----------------------------------|
  |                                   |                                   |
C#|-----------------------------------|-----------------------------------|
G#|-----------------------------------|---7--b8--r7--/8-b10~~~~------r8---|
E |-----------------------------------|-----------------------------------|
B |-----------------------------------|-----------------------------------|
F#|-----------------------------------|-----------------------------------|
C#|-----------------------------------|-----------------------------------|
  |                                   |                                   |
C#|-----------------------------------|-----------------------------------|
G#|-----------------------------------|-----------------------------------|
E |-----------------------------------|---7--b9--r7--/9-b10~~~~------r9---|
B |-----------------------------------|-----------------------------------|
F#|-----------------------------------|-----------------------------------|
C#|-----------------------------------|-----------------------------------|

C#|-----------------------------------|-----------------------------------|
G#|-----------------------------------|-----------------------------------|
E |o----------------------------------|-----------------------------------|
B |o----------------------------------|-----------------------------------|
F#|---6-----------6---6-------4-------|---6-----------6---6-------4-------|
C#|---4-----------4---4-------2-------|---4-----------4---4-------2-------|

C#|-----------------------------------|-----------------------------------|
G#|-----------------------------------|-----------------------------------|
E |o----------------------------------|-----------------------------------|
B |o-10~~~~------------------11~~~~---|--10~~~~------------------11~~~~---|
F#|-----------------------------------|-----------------------------------|
C#|-----------------------------------|-----------------------------------|

C#|-----------------------------------|-----------------------------------|
G#|-----------------------------------|-----------------------------------|
E |o-13~~~~------------------14~~~~---|--13~~~~------------------14~~~~---|
B |o----------------------------------|-----------------------------------|
F#|-----------------------------------|-----------------------------------|
C#|-----------------------------------|-----------------------------------|

C#|-----------------------------------|-----------------------------------|
G#|-----------------------------------|-----------------------------------|
E |-----------------------------------|----------------------------------o|
B |-------------------------------7---|-------7---7---7---7---6---6~~~~--o|
F#|---2-----------2---2-----------5---|-------5---5---5---5---4---4~~~~---|
C#|---0-----------0---0---------------|-----------------------------------|

C#|-----------------------------------|-----------------------------------|
G#|-----------------------------------|-----------------------------------|
E |--------------------------14~~~~---|------14~~14~~14~~14~\13~~13~~~~--o|
B |--14~~~~---------------------------|----------------------------------o| ×3
F#|-----------------------------------|-----------------------------------|
C#|-----------------------------------|-----------------------------------|
  |                                   |                                   |
C#|-----------------------------------|-----------------------------------|
G#|-----------------------------------|-----------------------------------|
E |-/16~~~~-----------------/11~~~~---|------11~~11~~11~~11~\10~~10~~~~--o|
B |-----------------------------------|----------------------------------o|
F#|-----------------------------------|-----------------------------------|
C#|-----------------------------------|-----------------------------------|

C#|-----------------------------------|-----------------------------------|
G#|-----------------------------------|-----------------------------------|
E |-----------------------------------|-----------------------------------|
B |-----------------------------------|-----------------------------------|
F#|---6-----------6---6-------4-------|---6-----------6---6-------4-------|
C#|---4-----------4---4-------2-------|---4-----------4---4-------2-------|
  |                                   |                                   |
C#|-----------------------------------|-----------------------------------|
G#|--13~~~~------------------14~~~~---|--13~~~~------------------14~~~~---|
E |-----------------------------------|-----------------------------------|
B |--10~~~~------------------11~~~~---|--10~~~~------------------11~~~~---|
F#|-----------------------------------|-----------------------------------|
C#|-----------------------------------|-----------------------------------|

C#|--16~~~~------------------17~~~~---|--16~~~~------------------17~~~~---|
G#|-----------------------------------|-----------------------------------|
E |--13~~~~------------------14~~~~---|--13~~~~------------------14~~~~---|
B |-----------------------------------|-----------------------------------|
F#|-----------------------------------|-----------------------------------|
C#|-----------------------------------|-----------------------------------|

C#|-----------------------------------|-----------------------------------|
G#|-----------------------------------|-----------------------------------|
E |-----------------------------------|-----------------------------------|
B |-------------------------------7---|-------7---7---7---7---6---6~~~~---|
F#|---2-----------2---2-----------5---|-------5---5---5---5---4---4~~~~---|
C#|---0-----------0---0---------------|-----------------------------------|

C#|--------------------------17~~~~---|------17~~17~~17~~17~\16~~16~~~~---|
G#|--17~~~~---------------------------|-----------------------------------|
E |--------------------------14~~~~---|------14~~14~~14~~14~\13~~13~~~~---|
B |--14~~~~---------------------------|-----------------------------------|
F#|-----------------------------------|-----------------------------------|
C#|-----------------------------------|-----------------------------------|

C#|-/19~~~~-----------------/14~~~~---|------14~~14~~14~~14~\13~~13~~~~---|
G#|-----------------------------------|-----------------------------------|
E |-/16~~~~-----------------/11~~~~---|------11~~11~~11~~11~\10~~10~~~~---|
B |-----------------------------------|-----------------------------------|
F#|-----------------------------------|-----------------------------------|
C#|-----------------------------------|-----------------------------------|

*******************

*  h  Hammer-on
*  p  Pull-off
*  b  Bend
*  r  Return
*  /  Slide up
*  ~  Vibrato

********************
Suggest correction
Creating personal tab
Creating personal tab
You can edit any tab online and save it as your Personal.

You can edit, replace or remove any tab part or add personal notes – all changes will be seen only by you.

Personal tabs can be accessed anytime from any device, even offline.
Learn more »
Give kudos to tab author, rate the tab!
1 2 3 4 5
comments
print report bad tab
guest
You may want to rate the tab now too:
select rating
Wanna post a correction for this tab? Suggest correction