Oops, an error
Loading. Please wait.

Morning Star tab

version 1
version 1

Whole song

Interactive

by Lucifer
13 views 3 this week
no commentswrite comment
1 2 3 4 5
3 more votes to show rating
add to favorites
×
Save as Personal and add changes to this tab that will be seen only by you. Learn more ›
×
You can save this tab as Personal to edit and correct it or add notes. All changes will be seen only by you. Learn more »
launch autoscroll
font size
0
reset
how to read this tab
guitar tuner
edit
Autoscroll
slow
fast
+/-
esc
set tempo
stop
---------------------------------------------------------------------------
                        “MORNING STAR” - Lucifer
---------------------------------------------------------------------------


[Intro] / [Verse]
C#|-----------------------------------|-----------------------------------|
G#|-----------------------------------|-----------------------------------|
E |-----------2-------4-----------5---|-------4---5---4---2---------------|
B |-------2-------2-------------------|-----------------------2-----------|
F#|---0-------------------------------|-----------------------------------|
C#|-----------------------------------|-----------------------------------|
(alternately)
C#|-----------------------------------|-----------------------------------|
G#|-------------------0-----------1---|-------0---1---0-------------------|
E |-----------2-----------------------|-------------------2---------------|
B |-------2-------2-------------------|-----------------------2-----------|
F#|---0-------------------------------|-----------------------------------|
C#|-----------------------------------|-----------------------------------|


C#|-----------------------------------|-----------------------------------|
G#|-------------------7---------------|-------------------6---------------|
E |-----------8-----------8-----------|-----------8-----------8-----------|
B |-------8-------8-----------8-------|-------8-------8-----------8-------|
F#|---6---------------------------6---|---6---------------------------6---|
C#|-----------------------------------|-----------------------------------|


C#|-----------------------------------|-----------------------------------|
G#|-----------------------------------|-----------------------------------|
E |-----------2-------4-----------5---|-------4---5---4---2---------------|
B |-------2-------2-------------------|-----------------------2-----------|
F#|---0-------------------------------|-----------------------------------|
C#|-----------------------------------|-----------------------------------|


C#|-----------------------------------|-----------------------------------|
G#|-------------------7---------------|-------------------9---------------|
E |-----------8-----------8-----------|----------10----------10-----------|
B |-------8-------8-----------8-------|------10------10----------10-------|
F#|---6---------------------------6---|---8-------------------------------|
C#|-----------------------------------|-----------------------------------|


[Chorus]
C#|-----------------------------------|-----------------------------------|
G#|-----------------------------------|-----------------------------------|
E |-----------------------------------|-----------------------------------|
B |-----------------------------------|-----------------------------------|
F#|---7---------------7-------9--10---|------------------13-b14-r13-------|
C#|---5---------------5-------7---8---|------------------11-b12-r11-------|


C#|-----------------------------------|-----------------------------------|
G#|-----------------------------------|-----------------------------------|
E |-----------------------------------|-----------------------------------|
B |-----------------------------------|-----------------------------------|
F#|---7--------------10---9---7---6---|-------------------8-------5-------|
C#|---5---------------8---7---5---4---|-------------------6-------3-------|


C#|-----------------------------------|
G#|-----------------------------------|
E |-----------------------------------|
B |-----------------------------------|
F#|---3---2---3-------5---3---5-------|
C#|---1---0---1-------3---1---3-------|


[Bridge]
C#|-----------------------------------|-----------------------------------|
G#|-----------------------------------|-----------------------------------|
E |o----------------------------------|-----------------------------------|
B |o----------------------------------|-----------------------------------|
F#|-------------------3----2----------|-------------------3----2----------|
C#|---5~~~~---------------------5-----|---4~~~~---------------------4-----|


C#|-----------------------------------|-----------------------------------|
G#|-----------------------------------|-----------------------------------|
E |-----------------------------------|----------------------------------o|
B |-----------------------------------|----------------------------------o| ×2
F#|-------------------3----2----------|-----------------------------------|
C#|---3~~~~---------------------3-----|---2~~~~-----------1~~~~-----------|


C#|-----------------------------------|-----------------------------------|
G#|-----------------------------------|-----------------------------------|
E |o----------------------------------|-----------------------------------|
B |o------------------5----4----------|-------------------5----4----------|
F#|---7~~~~-----------3----2----7-----|---6~~~~-----------3----2----6-----|
C#|---5~~~~---------------------5-----|---4~~~~---------------------4-----|


C#|-----------------------------------|-----------------------------------|
G#|-----------------------------------|-----------------------------------|
E |-----------------------------------|----------------------------------o|
B |-------------------5----4----------|----------------------------------o| ×2
F#|---5~~~~-----------3----2----5-----|---4---------------3---------------|
C#|---3~~~~---------------------3-----|---2---------------1---------------|


C#|-----------------------------------|-----------------------------------|
G#|-----------------------------------|-----------------------------------|
E |-----------------------------------|-----------------------------------|
B |-----------------------------------|-----------------------------------|
F#|---2-------------------------------|-----------------------------------|
C#|---0-------------------------------|-----------------------------------|

          PM............................................
C#|-----------------------------------|-----------------------------------|
G#|-----------------------------------|-----------------------------------|
E |-----------------------------------|-----------------------------------|
B |-----------------------------------|-----------------------------------|
F#|---7---7--7--7--7--7---7--7--7--7--|---7---7--7--7--7--9------10-------|
C#|---5---5--5--5--5--5---5--5--5--5--|---5---5--5--5--5--7-------8-------|

          PM........................
C#|-----------------------------------|-----------------------------------|
G#|-----------------------------------|-----------------------------------|
E |-----------------------------------|-----------------------------------|
B |-----------------------------------|-----------------------------------|
F#|---9---9--9--9--9--9---9--9--9--9--|---9------\5------/8------\5-------|
C#|---7---7--7--7--7--7---7--7--7--7--|---7------\3------/6------\3-------|

          PM............................................
C#|-----------------------------------|-----------------------------------|
G#|-----------------------------------|-----------------------------------|
E |-----------------------------------|-----------------------------------|
B |-----------------------------------|-----------------------------------|
F#|---7---7--7--7--7--7---7--7--7--7--|---7---7--7--7--7--9------10-------|
C#|---5---5--5--5--5--5---5--5--5--5--|---5---5--5--5--5--7-------8-------|

          PM........................
C#|-----------------------------------|-----------------------------------|
G#|-----------------------------------|-----------------------------------|
E |-----------------------------------|-----------------------------------|
B |-----------------------------------|---9/10----9-----------------------|
F#|---9---9--9--9--9--9---9--9--9--9--|---7-/8----7------10-------8-------|
C#|---7---7--7--7--7--7---7--7--7--7--|-------------------8-------6-------|

         PM.........................         PM.........................
C#|-----------------------------------|-----------------------------------|
G#|-----------------------------------|-----------------------------------|
E |-----------------------------------|-----------------------------------|
B |-----------------------------------|-----------------------------------|
F#|--12--12-12-12-12-12--12-12-12-12--|--12--12-12-12-12-12--12-12-12-12--|
C#|--10--10-10-10-10-10--10-10-10-10--|---9---9--9--9--9--9---9--9--9--9--|
  |                                   |                                   |
C#|-----------------------------------|-----------------------------------|
G#|--15~~~~---------------------------|--14~~~~---------------------------|
E |-----------------------------------|-----------------------------------|
B |-----------------------------------|-----------------------------------|
F#|-----------------------------------|-----------------------------------|
C#|-----------------------------------|-----------------------------------|
  |                                   |                                   |
C#|-----------------------------------|-----------------------------------|
G#|-----------------------------------|-----------------------------------|
E |--14~~~~---------------------------|--13~~~~---------------------------|
B |-----------------------------------|-----------------------------------|
F#|-----------------------------------|-----------------------------------|
C#|-----------------------------------|-----------------------------------|

         PM.........................         PM.........................
C#|-----------------------------------|-----------------------------------|
G#|-----------------------------------|-----------------------------------|
E |-----------------------------------|-----------------------------------|
B |-----------------------------------|-----------------------------------|
F#|--10--10-10-10-10-10--10-10-10-10--|--10--10-10-10-10-10--10-10-10-10--|
C#|---8---8--8--8--8--8---8--8--8--8--|---7---7--7--7--7--7---7--7--7--7--|
  |                                   |                                   |
C#|-----------------------------------|-----------------------------------|
G#|--13~~~~---------------------------|--12~~~~---------------------------|
E |-----------------------------------|-----------------------------------|
B |-----------------------------------|-----------------------------------|
F#|-----------------------------------|-----------------------------------|
C#|-----------------------------------|-----------------------------------|
  |                                   |                                   |
C#|-----------------------------------|-----------------------------------|
G#|-----------------------------------|-----------------------------------|
E |--12~~~~---------------------------|--11~~~~---------------------------|
B |-----------------------------------|-----------------------------------|
F#|-----------------------------------|-----------------------------------|
C#|-----------------------------------|-----------------------------------|


[Solo]    PM..............................................................
C#|-----------------------------------|-----------------------------------|
G#|-----------------------------------|-----------------------------------|
E |-----------------------------------|-----------------------------------|
B |-----------------------------------|-----------------------------------|
F#|---3---3--3--3--3--3---3--3--3--3--|---3---3--3--3--3--3---3--3--3--3--|
C#|---1---1--1--1--1--1---1--1--1--1--|---1---1--1--1--1--1---1--1--1--1--|

   .....................................................
C#|-----------------------------------|-----------------------------------|
G#|-----------------------------------|-----------------------------------|
E |-----------------------------------|-----------------------------------|
B |-----------------------------------|-------------------3-------5-------|
F#|---3---3--3--3--3--3---3--3--3--3--|---3---3--3--3--3--1-------3-------|
C#|---1---1--1--1--1--1---1--1--1--1--|---1---1--1--1--1------------------|

          PM..............................................................
C#|-----------------------------------|-----------------------------------|
G#|-----------------------------------|-----------------------------------|
E |-----------------------------------|-----------------------------------|
B |---7---7--7--7--7--7---7--7--7--7--|---7---7--7--7--7--7---7--7--7--7--|
F#|---5---5--5--5--5--5---5--5--5--5--|---5---5--5--5--5--5---5--5--5--5--|
C#|-----------------------------------|-----------------------------------|

   .....................................................
C#|-----------------------------------|-----------------------------------|
G#|-----------------------------------|-----------------------------------|
E |-----------------------------------|-----------------------------------|
B |---7---7--7--7--7--7---7--7--7--7--|---7---7--7--7--7------------------|
F#|---5---5--5--5--5--5---5--5--5--5--|---5---5--5--5--5--7-------8-------|
C#|-----------------------------------|-------------------5-------6-------|


C#|-------------------------------------|-------------------------------------|
G#|-------------------------------------|-------------------------------------|
E |-------------------------------------|-------------------------------------|
B |---7----7--7--7--7--7----7--7--7--7--|---7----7--7--7--7--7----7--7--7--7--|
F#|---5----5--5--5--5--5----5--5--5--5--|---5----5--5--5--5--5----5--5--5--5--|
C#|-------------------------------------|-------------------------------------|
  |                                     |                                     |
C#|-16p13----16h13----16p13----16p13----|-16p13----16p13----16p13----16p15----|
G#|-------15-------15-------15-------15-|-------15-------15-------15-------15-|
E |-------------------------------------|-------------------------------------|
B |-------------------------------------|-------------------------------------|
F#|-------------------------------------|-------------------------------------|
C#|-------------------------------------|-------------------------------------|


C#|-------------------------------------|-------------------------------------|
G#|-------------------------------------|-------------------------------------|
E |-------------------------------------|-------------------------------------|
B |---7----7--7--7--7--7----7--7--7--7--|---7----7--7--7--7--7----7--7--7--7--|
F#|---5----5--5--5--5--5----5--5--5--5--|---5----5--5--5--5--5----5--5--5--5--|
C#|-------------------------------------|-------------------------------------|
  |                                     |                                     |
C#|-16p13----16h13----16p13----16p13----|-16p13----16p13-13-------------------|
G#|-------15-------15-------15-------15-|-------15----------15~~~~------------|
E |-------------------------------------|-------------------------------------|
B |-------------------------------------|-------------------------------------|
F#|-------------------------------------|-------------------------------------|
C#|-------------------------------------|-------------------------------------|
  |                                     |                                     |
C#|-20p17----20h17----20p17----20p17----|-20p17----20p17-17-------------------|
G#|-------18-------18-------18-------18-|-------18----------18~~~~------------|
E |-------------------------------------|-------------------------------------|
B |-------------------------------------|-------------------------------------|
F#|-------------------------------------|-------------------------------------|
C#|-------------------------------------|-------------------------------------|


C#|-----------------------------------|-----------------------------------|
G#|-----------------------------------|-----------------------------------|
E |-----------------------------------|-----------------------------------|
B |---7-------------------------------|-----------------------------------|
F#|---5-------------------------------|-----------------------------------|
C#|-----------------------------------|-----------------------------------|
  |                                   |                                   |
C#|-----------------------------------|-----------------------------------|
G#|--13--12h13-12\10--12--10h12-10-\8-|--10--8h10--8-\6--6/8---6----------|
E |-----------------------------------|----------------------------7~~~~--|
B |-----------------------------------|-----------------------------------|
F#|-----------------------------------|-----------------------------------|
C#|-----------------------------------|-----------------------------------|
  |                                   |                                   |
C#|-----------------------------------|-----------------------------------|
G#|-----------------------------------|-----------------------------------|
E |--14--12h14-12\10--12--10h12-10-\9-|--10--9h10--9-\7--7/9---7----------|
B |-----------------------------------|----------------------------8~~~~--|
F#|-----------------------------------|-----------------------------------|
C#|-----------------------------------|-----------------------------------|

     PM.................................................................
C#|-----------------------------------|-----------------------------------|
G#|-----------------------------------|-----------------------------------|
E |-----------------------------------|-----------------------------------|
B |-----------------------------------|-----------------------------------|
F#|---7---7--7--7--7--7---7--7--7--7--|---7---7--7--7--7--7---7--7--7--7--|
C#|---5---5--5--5--5--5---5--5--5--5--|---5---5--5--5--5--5---5--5--5--5--|


C#|-----------------------------------|-----------------------------------|
G#|-----------------------------------|-----------------------------------|
E |-----------------------------------|-----------------------------------|
B |-----------------------------------|-----------------------------------|
F#|---7-------------------------------|-----------------------------------|
C#|---5-------------------------------|-----------------------------------|
  |                                   |                                   |
C#|-----------------------------------|-----------------------------------|
G#|--13--12h13-12\10--12--10h12-10-\8-|--10--8h10--8-\6--6/8---6----------|
E |-----------------------------------|----------------------------7~~~~--|
B |-----------------------------------|-----------------------------------|
F#|-----------------------------------|-----------------------------------|
C#|-----------------------------------|-----------------------------------|
  |                                   |                                   |
C#|-----------------------------------|-----------------------------------|
G#|-----------------------------------|-----------------------------------|
E |--14--12h14-12\10--12--10h12-10-\9-|--10--9h10--9-\7--7/9---7----------|
B |-----------------------------------|----------------------------8~~~~--|
F#|-----------------------------------|-----------------------------------|
C#|-----------------------------------|-----------------------------------|

     PM.................................................................
C#|-----------------------------------|-----------------------------------|
G#|-----------------------------------|-----------------------------------|
E |-----------------------------------|-----------------------------------|
B |-----------------------------------|-----------------------------------|
F#|---7---7--7--7--7--7---7--7--7--7--|---7---7--7--7--7--7---7--7--7--7--|
C#|---5---5--5--5--5--5---5--5--5--5--|---5---5--5--5--5--5---5--5--5--5--|


C#|-------------------------------------|-------------------------------------|
G#|-------------------------------------|-------------------------------------|
E |-------------------------------------|-------------------------------------|
B |-------------------------------------|-------------------------------------|
F#|---7---------------------------------|-------------------------------------|
C#|---5---------------------------------|-------------------------------------|
  |                                     |                                     |
C#|-------------------------------------|-------------------------------------|
G#|-12h13p12\10h12p10-\8h10-p8-\6-h8-p6-|--\5-h6-p5-\3-h5-p3-\1-h3-p1---------|
E |-------------------------------------|-----------------------------2~~~~---|
B |-------------------------------------|-------------------------------------|
F#|-------------------------------------|-------------------------------------|
C#|-------------------------------------|-------------------------------------|
  |                                     |                                     |
C#|-------------------------------------|-------------------------------------|
G#|-------------------------------------|-------------------------------------|
E |-12h14p12\10h12p10-\9h10-p9-\7-h9-p7-|--\5-h7-p5-\3-h5-p3-\2-h3-p2---------|
B |-------------------------------------|-----------------------------3~~~~---|
F#|-------------------------------------|-------------------------------------|
C#|-------------------------------------|-------------------------------------|

     PM..............................................
C#|-----------------------------------|-----------------------------------|
G#|-----------------------------------|-----------------------------------|
E |-----------------------------------|-------------------------0---------|
B |-----------------------------------|-------------------------0---------|
F#|---5---5--5--5--5--5---5--5--5--5--|---5---5--5--5---8-----------------|
C#|---3---3--3--3--3--3---3--3--3--3--|---3---3--3--3---6-----------------|

     PM.................................................................
C#|-----------------------------------|-----------------------------------|
G#|-----------------------------------|-----------------------------------|
E |-----------------------------------|-----------------------------------|
B |-----------------------------------|-----------------------------------|
F#|---7---7--7--7--7--7---7--7--7--7--|---7---7--7--7--7--7---7--7--7--7--|
C#|---5---5--5--5--5--5---5--5--5--5--|---5---5--5--5--5--5---5--5--5--5--|


C#|-------------------------------------|-------------------------------------|
G#|-------------------------------------|-------------------------------------|
E |-------------------------------------|-------------------------------------|
B |-------------------------------------|-------------------------------------|
F#|---7---------------------------------|-------------------------------------|
C#|---5---------------------------------|-------------------------------------|
  |                                     |                                     |
C#|-------------------------------------|-------------------------------------|
G#|-12h13p12\10h12p10-\8h10-p8-\6-h8-p6-|--\5-h6-p5-\3-h5-p3-\1-h3-p1---------|
E |-------------------------------------|-----------------------------2~~~~---|
B |-------------------------------------|-------------------------------------|
F#|-------------------------------------|-------------------------------------|
C#|-------------------------------------|-------------------------------------|
  |                                     |                                     |
C#|-------------------------------------|-------------------------------------|
G#|-------------------------------------|-------------------------------------|
E |-12h14p12\10h12p10-\9h10-p9-\7-h9-p7-|--\5-h7-p5-\3-h5-p3-\2-h3-p2---------|
B |-------------------------------------|-----------------------------3~~~~---|
F#|-------------------------------------|-------------------------------------|
C#|-------------------------------------|-------------------------------------|

     PM..............................................
C#|-----------------------------------|-----------------------------------|
G#|-----------------------------------|-----------------------------------|
E |-----------------------------------|-------------------------0---------|
B |-----------------------------------|-------------------------0---------|
F#|---5---5--5--5--5--5---5--5--5--5--|---5---5--5--5---8-----------------|
C#|---3---3--3--3--3--3---3--3--3--3--|---3---3--3--3---6-----------------|


[Outro]
C#|-----------------------------------|-----------------------------------|---------|
G#|-----------------------------------|-----------------------------------|---------|
E |-----------2-------4-----------5---|-------4--h5--p4---2---------------|---------|
B |-------2-------2-------------------|-----------------------2-----------|---------|
F#|---0-------------------------------|-----------------------------------|---/6~~~~|
C#|-----------------------------------|-----------------------------------|---------|


 Notation Legend
*******************
*
*  h  Hammer-on
*  p  Pull-off
*  b  Bend
*  r  Return
*  /  Slide up
*  ~  Vibrato
*  PM Palm Mute
*
*******************

            
            
Suggest correction
Creating personal tab
Creating personal tab
You can edit any tab online and save it as your Personal.

You can edit, replace or remove any tab part or add personal notes – all changes will be seen only by you.

Personal tabs can be accessed anytime from any device, even offline.
Learn more »
Give kudos to tab author, rate the tab!
1 2 3 4 5
comments
print report bad tab
guest
You may want to rate the tab now too:
select rating
Wanna post a correction for this tab? Suggest correction