Oops, an error
Loading. Please wait.

Purple Pyramid tab

version 1
version 1

Whole song

Interactive

by Lucifer
34 views 1 this week
no commentswrite comment
1 2 3 4 5
3 more votes to show rating
add to favorites
×
Save as Personal and add changes to this tab that will be seen only by you. Learn more ›
×
You can save this tab as Personal to edit and correct it or add notes. All changes will be seen only by you. Learn more »
launch autoscroll
font size
0
reset
how to read this tab
guitar tuner
edit
Autoscroll
slow
fast
+/-
esc
set tempo
stop
[Intro] 
      T       T           T
C#|-----------------------------------|-----------------------------------|
G#|-----------------------------------|-----------------------------------|
E |---------------4-----------4--/6---|---------------4-------3---3-------|
B |---------------4-----------4--/6---|---------------4-------4---4-------|
F#|-----------------------------------|-----------------------------------|
C#|---4-------4-----------4-----------|---0-------0-----------------------|

      T       T           T
C#|-----------------------------------|-----------------------------------|
G#|-----------------------------------|-----------------------------------|
E |---------------4-----------4--/6---|---------------7-------6---6\------|
B |---------------4-----------4--/6---|---------------7-------7---7\------|
F#|-----------------------------------|-----------------------------------|
C#|---4-------4-----------4-----------|---0-------0-----------------------|

C#|-----------------------------------|
G#|-----------------------------------|
E |-----------------------------------|
B |-----------------------------------|
F#|-----------------------------------|
C#|--/4~~~~---------------------------|

[Verse]
C#|-----------------------------------|-----------------------------------|
G#|-----------------------------------|-----------------------------------|
E |o----------------------------------|----------------------------------o|
B |o----------------------------------|----------------------------------o| ×4
F#|---6-----------6---6-----------6---|-------6---9-----------------------|
C#|---4-----------4---4-----------4---|---7-----------6------b7---6~~~~---|

[Chorus]
C#|-----------------------------------|-----------------------------------|
G#|-----------------------------------|-----------------------------------|
E |-----------------------------------|-----------------------------------|
B |-------------------------------6---|---6---9---9--11--11---8---8b9r8---|
F#|---6-----------6---6-----------4---|---4---7---7---9---9---6---6b7r6---|
C#|---4-----------4---4---------------|-----------------------------------|

C#|-----------------------------------|-----------------------------------|
G#|-----------------------------------|-----------------------------------|
E |-----------------------------------|-----------------------------------|
B |-----------------------------------|-----------------------------------|
F#|---6-----------4---6-----------6---|---9--11---8---9-------7---2---4---|
C#|---4-----------2---4-----------4---|---7---9---6---7-------5---0---2---|

[Post-Chorus]
C#|-------------------5---------------|-------------------1---------------|
G#|-----------6-5h6p5-----5-----------|---------------2-------2-----------|
E |o--------------------------5-------|-----------1---------------1-------|
B |o------7-----------------------7---|-------3-----------------------3---|
F#|---5-------------------------------|---1-------------------------------|
C#|-----------------------------------|-----------------------------------|

C#|-------------------5---------------|-------------------3---------------|
G#|-----------6-5h6p5-----5-----------|---------------4-------4-----------|
E |---------------------------5-------|-----------3---------------3------o|
B |-------7-----------------------7---|-------5-----------------------5--o| ×2
F#|---5-------------------------------|---3-------------------------------|
C#|-----------------------------------|-----------------------------------|

C#|-------------------3---------------|
G#|---------------4-------4-----------|
E |-----------3---------------3-------|
B |-------5-----------------------5---|
F#|---3-------------------------------|
C#|-----------------------------------|

[Bridge]
C#|-----------------------------------|-------------------0---------------|
G#|-----------------------------------|---------------0-------0-----------|
E |o----------------------------------|-----------6---------------6-------|
B |o----------------------------------|-------6---------------------------|
F#|-----------7---6---7---9---6h7p6---|---4-------------------------------|
C#|---4-------------------------------|-----------------------------------|

C#|-----------------------------------|-----------------------------------|
G#|-----------------------------------|-------------------0---------------|
E |-----------------------------------|-----------6-----------6-----------|
B |-----------------------------------|-------8-------8-----------8-------|
F#|-------7---6---7---9---9/11--------|---9-------------------------------|
C#|---4-------------------------------|-----------------------------------|

C#|-----------------------------------|-------------------0---------------|
G#|-----------------------------------|---------------0-------0-----------|
E |-----------------------------------|-----------6---------------6-------|
B |-----------------------------------|-------6---------------------------|
F#|-----------7---6---7---9---6h7p6---|---4-------------------------------|
C#|---4-------------------------------|-----------------------------------|

C#|-----------------------------------|-----------------------------------|
G#|-------------------0---------------|-------------------0---------------|
E |-----------4-----------4-----------|-----------2-----------2----------o|
B |-------6-------6-----------6-------|-------4-------4-----------4------o| ×2
F#|---7-------------------------------|---5-------------------------------|
C#|-----------------------------------|-----------------------------------|

C#|-----------------------------------|
G#|-------------------0---------------|
E |-----------2-----------2-----------|
B |-------4-------4-----------4-------|
F#|---5-------------------------------|
C#|-----------------------------------|

C#|-----------------------------------|-----------------------------------|
G#|-----------------------------------|-----------------------------------|
E |o----------------------------------|-----------------------------------|
B |o--6-----------7-----------6-------|---5-------------------------------|
F#|---6-----------7-----------6-------|---5-------------------------------|
C#|---4-----------5-----------4-------|---3-------------------------------|


C#|-----------------------------------|-----------------------------------|
G#|-----------------------------------|-----------------------------------|
E |-----------------------------------|----------------------------------o|
B |---5-----------8-----------7-------|---4------------------------------o| ×2
F#|---5-----------8-----------7-------|---4-------------------------------|
C#|---3-----------6-----------5-------|---2-------------------------------|

[Outro] 
C#|-----------------------------------|-----------------------------------|
G#|--12p11----------------------------|--12p11-12h14-11~~~~---------------|
E |o-------13p11-13~~~~---------------|--------------------------11------o|
B |o----------------------------------|----------------------------------o| ×3
F#|-----------------------------------|-----------------------------------|
C#|-----------------------------------|-----------------------------------|

C#|-----------------------------------|-----------------------------------|
G#|--12p11----------------------------|--12p11-12h14-11~~~~------12-------|
E |--------13p11-13~~~~---------------|-----------------------------------|
B |-----------------------------------|-----------------------------------|
F#|-----------------------------------|-----------------------------------|
C#|-----------------------------------|-----------------------------------|

[End]
C#|-----------------------------------|-----------------------------------|
G#|-----------------------------------|-----------------------------------|
E |---------------7-------6---6\------|-----------------------------------|
B |---------------7-------7---7\------|-----------------------------------|
F#|-----------------------------------|-----------------------------------|
C#|---0-------0-----------------------|--/4~~~~---------------------------|
  |                                   |                                   |
C#|-----------------------------------|-----------------------------------|
G#|--12--14--12~~~~-------------------|-----------------------------------|
E |--------------------------11-------|--13~~~~---------------------------|
B |-----------------------------------|-----------------------------------|
F#|-----------------------------------|-----------------------------------|
C#|-----------------------------------|-----------------------------------|

******************
*
*  h  Hammer-on
*  p  Pull-off
*  /  Slide-up
*  b  Bend
*  r  Return
*  ~  Vibrato
*  T  Thumb
* 
******************

            
            
Suggest correction
Creating personal tab
Creating personal tab
You can edit any tab online and save it as your Personal.

You can edit, replace or remove any tab part or add personal notes – all changes will be seen only by you.

Personal tabs can be accessed anytime from any device, even offline.
Learn more »
Give kudos to tab author, rate the tab!
1 2 3 4 5
comments
print report bad tab
guest
You may want to rate the tab now too:
select rating
Wanna post a correction for this tab? Suggest correction