Oops, an error
Loading. Please wait.

White Mountain tab

version 1
version 1

Whole song

Interactive

by Lucifer
4 views 1 this week
no commentswrite comment
1 2 3 4 5
3 more votes to show rating
add to favorites
×
Save as Personal and add changes to this tab that will be seen only by you. Learn more ›
×
You can save this tab as Personal to edit and correct it or add notes. All changes will be seen only by you. Learn more »
launch autoscroll
font size
0
reset
how to read this tab
guitar tuner
edit
Autoscroll
slow
fast
+/-
esc
set tempo
stop
[Intro]    
C#|-----------------|-----------------|-----------------|-----------------|
G#|-----------------|-----------------|-----------------|-----------------|
E |-----------------|-----------------|-----------------|-----------------|
B |-9b11--------r9--|--9-----------9--|--6---6---6---6--|--7---7---7---7--|
F#|-----------------|-----------------|-----------------|-----------------|
C#|-----------------|-----------------|-----------------|-----------------|

C#|-----------------|-----------------|-----------------|-----------------|
G#|-----------------|-----------------|-----------------|-----------------|
E |-----------------|-----------------|-----------------|-----------------|
B |-----------------|-----------------|-----------------|-----------------|
F#|-12----------12--|-11----------11--|--7-----------7--|--9-----------9--|
C#|-----------------|-----------------|-----------------|-----------------|

C#|-----------------|-----------------|-----------------|-----------------|
G#|-----------------|-----------------|-----------------|-----------------|
E |-----------------|-----------------|-----------------|-----------------|
B |--7---7---7---7--|--9-----------9--|-16--------------|-----------------|
F#|-----------------|-----------------|-----------------|-----------------|
C#|-----------------|-----------------|-----------------|-----------------|

C#|-----------------|-----------------|-----------------|-----------------|
G#|-----------------|-----------------|-----------------|-----------------|
E |-----------------|-----------------|-----------------|-----------------|
B |-----------------|-----------------|-----------------|-----------------|
F#|--8-----------8--|-10----------10--|--5--------------|-----------------|
C#|-----------------|-----------------|-----------------|-----------------|

[Verse]
C#|-----------------------------------|-----------------------------------|
G#|-----------------------------------|-----------------------------------|
E |-----------------------------------|-----------------------------------|
B |-----------------------------------|-----------------------8-------7---|
F#|---9---9---9---9---9---9---9---9---|---9---9---9---9-------6-------5---|
C#|---7---7---7---7---7---7---7---7---|---7---7---7---7-------------------|

C#|-----------------------------------|-----------------------------------|
G#|-----------------------------------|-----------------------------------|
E |-----------------------------------|-----------------------------------|
B |-------7---7---7---7---7---7---7---|---7---7---7---7-------------------|
F#|-------5---5---5---5---5---5---5---|---5---5---5---5-------7-------9---|
C#|-----------------------------------|-----------------------5-------7---|

C#|-----------------------------------|-----------------------------------|
G#|-----------------------------------|-----------------------------------|
E |-----------------------------------|-----------------------------------|
B |-----------------------------------|-----------------------9------10---|
F#|---9---9---9---9---9---9---9---9---|---9---9---9---9-------7-------8---|
C#|---7---7---7---7---7---7---7---7---|---7---7---7---7-------------------|

C#|-----------------------------------|-----------------------------------|
G#|-----------------------------------|-----------------------------------|
E |-----------------------------------|-----------------------------------|
B |------10--10--10--10--10--10--10---|--10--10--10--10-------------------|
F#|-------8---8---8---8---8---8---8---|---8---8---8---8-------7-------9---|
C#|-----------------------------------|-----------------------5-------7---|

C#|-----------------------------------|-----------------------------------|
G#|-----------------------------------|-----------------------------------|
E |-----------------------------------|-----------------------------------|
B |-----------------------------------|-----------------------8-------7---|
F#|-------9---9---9---9---9---9---9---|---9---9---9---9-------6-------5---|
C#|-------7---7---7---7---7---7---7---|---7---7---7---7-------------------|

C#|-----------------------------------|-----------------------------------|
G#|-----------------------------------|-----------------------------------|
E |-----------------------------------|-----------------------------------|
B |-------7---7---7---7---7---7---7---|---7---7---7---7-------------------|
F#|-------5---5---5---5---5---5---5---|---5---5---5---5-------7-------9---|
C#|-----------------------------------|-----------------------5-------7---|

C#|-----------------------------------|-----------------------------------|
G#|-----------------------------------|-----------------------------------|
E |-----------------------------------|-----------------------------------|
B |-----------------------------------|----------------------11------10---|
F#|---9---9---9---9---9---9---9---9---|---9---9---9---9-------9-------8---|
C#|---7---7---7---7---7---7---7---7---|---7---7---7---7-------------------|

C#|-----------------------------------|-----------------------------------|
G#|-----------------------------------|-----------------------------------|
E |-----------------------------------|-----------------------------------|
B |------10--10--10--10--10--10--10---|--10--10--10--10--10--10--10--10---|
F#|-------8---8---8---8---8---8---8---|---8---8---8---8---8---8---8---8---|
C#|-----------------------------------|-----------------------------------|

[Chorus]
C#|-----------------------------------|-----------------------------------|
G#|-----------------------------------|-----------------------------------|
E |-----------------------------------|-----------------------------------|
B |---7-------------------------------|-------6---3---6---8-------5---7---|
F#|---5-------------------------------|-------4---1---4---6-------3---5---|
C#|-----------------------------------|-----------------------------------|

C#|-----------------------------------|-----------------------------------|
G#|-----------------------------------|-----------------------------------|
E |-----------------------------------|-----------------------------------|
B |-----------7-----------6-------8---|-----------------------------------|
F#|-----------------------------------|-----------------------------------|
C#|-----------------------------------|-----------------------------------|

C#|-----------------------------------|-----------------------------------|
G#|-----------------------------------|-----------------------------------|
E |-----------------------------------|-----------------------------------|
B |---7-------------------------------|-------6---3---6---8-----------7---|
F#|---5-------------------------------|-------4---1---4---6-------5---5---|
C#|-----------------------------------|---------------------------3-------|

C#|-----------------------------------|-----------------------------------|
G#|-----------------------------------|-----------------------------------|
E |-----------------------------------|-----------------------------------|
B |-----------7-----------6-------8---|-----------------------------------|
F#|-----------------------------------|-----------------------------------|
C#|-----------------------------------|-----------------------------------|

[Verse]
C#|-----------------------------------|-----------------------------------|
G#|-----------------------------------|-----------------------------------|
E |-----------------------------------|-----------------------------------|
B |--11------11-----------9--11---9---|-----------9-----------9-------6---|
F#|-----------------------------------|-----------------------------------|
C#|-----------------------------------|-----------------------------------|
  |                                   |                                   |
C#|-----------------------------------|-----------------------------------|
G#|-----------------------------------|-----------------------------------|
E |-----------------------------------|-----------------------------------|
B |--14------14----------14------13---|----------13----------13-------9---|
F#|--12------12----------12------11---|----------11----------11-------7---|
C#|-----------------------------------|------------------------------(7)--|

C#|-----------------------------------|-----------------------------------|
G#|-----------------------------------|-----------------------------------|
E |-----------------------------------|-----------------------------------|
B |-----------6-----------6-------7---|-----------7-----------7-------7---|
F#|-----------------------------------|-----------------------------------|
C#|-----------------------------------|-----------------------------------|

C#|-----------------------------------|-----------------------------------|
G#|-----------------------------------|-----------------------------------|
E |-----------------------------------|-----------------------------------|
B |-----------9-----------9------11---|----------11----------11------10---|
F#|-----------7-----------7-------9---|-----------9-----------9-------8---|
C#|----------(7)----------------------|-----------------------------------|

C#|-----------------------------------|-----------------------------------|
G#|-----------------------------------|-----------------------------------|
E |-----------------------------------|-------------------------------7---|
B |-----------7-----------7-------9---|-----------9-----------9-------0---|
F#|-----------------------------------|-----------------------------------|
C#|-----------------------------------|-----------------------------------|

C#|-----------------------------------|-----------------------------------|
G#|-----------------------------------|-----------------------------------|
E |-----------------------------------|-------------------------------7---|
B |----------10----------10------12---|-b13------12----------12-------0---|
F#|-----------8-----------8------10---|-b11------10----------10-----------|
C#|-----------------------------------|-----------------------------------|

C#|---------------0-------------------|---------------0-------------------|
G#|-------6---------------6-----------|-------6---------------6-----------|
E |--(7)------5---------------5-------|-----------5---------------5-------|
B |--(0)--------------------------0---|-----------------------------------|
F#|-----------------------------------|-----------------------------------|
C#|-----------------------------------|-----------------------------------|

C#|---------------0-------------------|---------------0-------------------|
G#|-------6---------------6-----------|-------6---------------6-----------|
E |-----------5---------------5-------|-----------4---------------4-------|
B |--(0)--------------------------0---|-----------------------------------|
F#|-----------------------------------|-----------------------------------|
C#|-----------------------------------|-----------------------------------|

C#|---------------0-------------------|---------------0-------------------|
G#|-------6---------------6-----------|-----------1-----------1-----------|
E |-----------3---------------3-------|-------2-------------------2-------|
B |-------------------------------0---|-----------------------------------|
F#|-----------------------------------|-----------------------------------|
C#|-----------------------------------|-----------------------------------|

(Third guitar fades in on second playthrough)
C#|-----------------------------------|-----------------------------------|
G#|-----------------------------------|-----------------------------------|
E |-----------------------------------|-----------------------------------|
B |-----------------------------------|-----------------------------------|
F#|-----------------------------------|--------------10------10--11-------|
C#|--11--10--11----------11--10--11---|-----------------------------------|
  |                                   |                                   |
C#|-----------------------------------|-----------------------------------|
G#|-----------------------------------|-----------------------------------|
E |-----------------------------------|-----------------------------------|
B |-----------------------------------|-----------------------------------|
F#|-----------------------------------|---------------6-------6---8-------|
C#|---8---6---8-----------8---6---8---|-----------------------------------|

C#|-----------------------------------|-----------------------------------|
G#|-----------------------------------|-----------------------------------|
E |-----------------------------------|-----------------------------------|
B |-----------------------------------|---------------8-------8--10-------|
F#|--10---8--10----------10---8--10---|-----------------------------------|
C#|-----------------------------------|-----------------------------------|

C#|-----------------------------------|-----------------------------------|
G#|-----------------------------------|-----------------------------------|
E |-----------------------------------|-----------------------------------|
B |-----------------------------------|-----------------------------------|
F#|-----------------------------------|---------------8-------8-----------|
C#|---9---8---9-----------9---8---9---|--------------------------11-------|
  |                                   |                                   |
C#|-----------------------------------|-----------------------------------|
G#|-----------------------------------|-----------------------------------|
E |-----------------------------------|-----------------------------------|
B |-----------------------------------|-----------------------------------|
F#|-----------------------------------|---------------4-------4---3-------|
C#|---6---4---6-----------6---4---6---|-----------------------------------|

C#|-----------------------------------|-----------------------------------|
G#|-----------------------------------|-----------------------------------|
E |-----------------------------------|-----------------------------------|
B |-----------------------------------|---------------6-------6---5-------|
F#|---8---6---8-----------8---6---8---|-----------------------------------|
C#|-----------------------------------|-----------------------------------|

[Solo]
(Rhythm)
C#|-----------------------------------|-----------------------------------|
G#|-----------------------------------|-----------------------------------|
E |o----------------------------------|---------------6-------6---8------o|
B |o----------------------------------|---------------6-------6---8------o| ×4
F#|---8---6---8-----------8---6---8---|---------------4-------4---6-------|
C#|-----------------------------------|-----------------------------------|

(Lead)
C#|-----------------------------------|------------------------------------|
G#|---------------8--b9---------------|-------9----------11----------------|
E |o-10-----------------------8-------|---------------------------12b13r12o|
B |o----------------------------------|-----------------------------------o| ×2
F#|-----------------------------------|------------------------------------|
C#|-----------------------------------|------------------------------------|

C#|-----------------------------------------------------------------------------|
G#|------16--13-------------13--16--13---------13---16---13---------13--16--13--|
E |--15----------16--16b17--------------16b17----------------16b17--------------|
B |-----------------------------------------------------------------------------|
F#|-----------------------------------------------------------------------------|
C#|-----------------------------------------------------------------------------|

C#|-----------------------------------------------------------------------------|
G#|---------13--16--13---------13--16--13------16--13---------------------------|
E |--16b17--------------16b17--------------15----------15b17--15\---------------|
B |-----------------------------------------------------------------------------|
F#|-----------------------------------------------------------------------------|
C#|-----------------------------------------------------------------------------|

C#|----------------------------------------------|
G#|----------------------------------------------|
E |----------------------------------------------|
B |------------------------12h13h15---12h13h15---|
F#|--12h13h15---12h13h15-------------------------|
C#|----------------------------------------------|

C#|-----------------------------------------------------------------------------|
G#|------------16------16------16------19------16------16------19\--------------|
E |--14h15h17------17------17------17------17------17------17-------------------|
B |-----------------------------------------------------------------------------|
F#|-----------------------------------------------------------------------------|
C#|-----------------------------------------------------------------------------|

C#|-----------------------------------|-----------------------------------|
G#|--/7-----/12~~~~-------------------|--12~~~~\--------------------------|
E |-----------------------------------|-----------------------------------|
B |-----------------------------------|-----------------------------------|
F#|-----------------------------------|-----------------------------------|
C#|-----------------------------------|-----------------------------------|

[Outro]
C#|-----------------------------------|-----------------------------------|
G#|-----------------------------------|-----------------------------------|
E |-----------------------------------|-----------------------------------|
B |---7-------------------------------|-------6---3---6---8---------------|
F#|---5-------------------------------|-------4---1---4---6---------------|
C#|-----------------------------------|-----------------------------------|
  |                                   |                                   |
C#|-----------------------------------|-----------------------------------|
G#|-----------------------------------|-----------------------------------|
E |-----------------------------------|-----------------------------------|
B |-----------7-----------6-------8---|-----------------------------------|
F#|-----------------------------------|-----------------------------------|
C#|-----------------------------------|-----------------------------------|

  Notation Legend
******************
*
*  h  Hammer-on
*  p  Pull-off
*  /  Slide-up
*  b  Bend
*  r  Return
*  ~  Vibrato
* 
******************

            
            
Suggest correction
Creating personal tab
Creating personal tab
You can edit any tab online and save it as your Personal.

You can edit, replace or remove any tab part or add personal notes – all changes will be seen only by you.

Personal tabs can be accessed anytime from any device, even offline.
Learn more »
Give kudos to tab author, rate the tab!
1 2 3 4 5
comments
print report bad tab
guest
You may want to rate the tab now too:
select rating
Wanna post a correction for this tab? Suggest correction