Oops, an error
Loading. Please wait.

Ja, Ja Bass

12 views 1 this week
no commentswrite comment
1 2 3 4 5
3 more votes to show rating
add to favorites
launch autoscroll
font size
0
reset
guitar tuner
×
Best way to learn
"Ja, Ja"
Autoscroll
slow
fast
+/-
esc
set tempo
stop
Leyenda:
/= La nota anterior a la barra va unida a la siguiente
>= Desde la ultima nota tocada se desliza hacia la nota sig.
<= Lo mismo nada mas que en sentido hacia el clavijero.

Intro: (Entra en la segunda vuelta)

G|----------------------------------------
D|---------5---3-------------5---3--------
A|-----------5/---3b-----------5/---------
E|--3-3--3/-----------3-3--3/-------------

(x2veces el intro)

  Ja, ja, frutilla predilecta
G|----------------------------
D|-----5----3-5---------------
A|--------------------3/5/----
E|-3--------------------------

  esperando siempre alerta...
G|-------------------------------
D|-10--9----------------8-9------
A|-11-10--------------------8/9--
E|-------------------------------

Lácteo que a ti te alimenta
te interesa, te rellena,         (repite las
te quita la cabeza.               mismas notas)
Ay, si, la cabeza, la cabeza,
lo primero que te duele
a la hora de la fiesta.
  Fiesta, fiesta programada,
G|----------------
D|----------------
A|- 3-3-----(Paro)
E|----------------


  fiesta privada o fiesta sorpresa.
G|-------------------------------
D|-------------------------------
A|----10--9--8--7--6--5--4-------
E|-------------------------------

       Lara la la la la larala la...
G|-------------------------------------------
D|-----------------------------2-3-4-5-4-3-2-
A|-3-3--------3----4-4---3-3--3--------------
E|-------------------------------------------

<Estribillo>
  Fa, fa, fa , falo que no llega
G|-------------------------------
D|--------------1-----------3----
A|-3---1---3---------------------
E|-------------------------------

a esta hora llega a la media hora
G|-------------------------------
D|------1---------3--------->13--
A|-------------------------------
E|-------------------------------

aprietan, aprietan,
aprietan las cosas
cuando estan muy calurosas        (repite las
dentro de la nebulosa.             mismas notas)
fa, fa, fa, falso que no llega
a esta hora llega a la media hora

  espera, espera  la veta perfecta,
G|-----------------------------
D|-----------------------------
A|--------------------6--6--6--
E|---5---5---5-----------------

  el momento mas preciso pegate la media vuelta y..
G|----------------------------------------------
D|----------------------------------------------
A|------5-5-------------------------------------
E|------------------------------0--0--1--2------

   chau!
G|-------------------------------------
D|---5--4--3--2-2---5-5--4-4--3---2-2-- (x2)
A|-------------------------------------
E|-------------------------------------


  (Solo de Guitarra)
G|-------------------------------------
D|------------------------------------- (x8)
A|-------------------------------------
E|---3--2--1--0-0---3-3--2-2--1---0-0--
       (En la penultima vuelta lo hace con Slaping)

(termina con un corte q lo hace la viola
y despues el bajo hace con 3 dedos las notas:)
G|----------7-/-6-/-5------------------
D|-------------------------------------
A|-------------------------------------
E|-------------------------------------


  Fruta, tó eres muy sabrosa pero te pudres...
G|----------10-12--------10--9--------------
D|-----------------10/12/----10---8-10------
A|-------------------------------------8/10-
E|--3---------------------------------------

  Si si tienes tu tentadera te comen en la primera...
G|-4----------------------------9---------------
D|-5----------------------------10--------------
A|----------------------------------------------
E|-3----------------------------8---------------

  Claro, te pones bien verdeta cuando todo el mundo...
G|----------10-12--------10--9--------------
D|-----------------10/12/----10---8-10------
A|-------------------------------------8/10-
E|--3---------------------------------------


pero asi es el placer y la naturaleza,
todo bien... todo mal... todo a la mierda. (repite el
                                            antestribillo)
Lara la la la...
                                   (repite lo mismo)
Fa, fa, fa , falo que no llega
a esta hora llega a la media hora...


< Bueno, espero q la puedan tocar. La banda suena muy bien,
  se las recomiendo!.. Abel. >
Suggest correction
Give kudos to tab author, rate the tab!
1 2 3 4 5
comments
print report bad tab
guest
You may want to rate the tab now too:
select rating
Wanna post a correction for this tab? Suggest correction