Oops, an error
Loading. Please wait.

Ja, Ja Tab

9 views 1 this week
no commentswrite comment
1 2 3 4 5
3 more votes to show rating
add to favorites
launch autoscroll
font size
0
reset
how to read this tab
guitar tuner
×
Best way to learn
"Ja, Ja"
Autoscroll
slow
fast
+/-
esc
set tempo
stop
Leyenda:
b= Estirar la cuerda
/= La nota anterior va encadenada con la siguiente
~= Le doy una vibracion a la cuerda


Intro:

E|----------------------------------------
B|----------------------------------------
G|----------------------------------------
D|---------5---3-------------5---3--------
A|-----------5/---3b-----------5/---5/4/3~
E|--3-3--3/-----------3-3--3/-------------

E|---------------------------------------
B|---------------------------------------
G|----------------------------------5b/3-
D|---------5---3-------------5---3-------
A|-----------5/---3b-----------5/--------
E|--3-3--3/-----------3-3--3/------------

(x2veces el intro)

Notas:
[ch]Gm7[/ch]m7(Funk)                     [ch]C7[/ch]
E|----3----------         E|------0--------
B|----3----------         B|------1--------
G|----3----------         G|------3--------
D|---------------         D|------2--------
A|---------------         A|------3--------
E|---------------         E|---------------

[ch]Gm7[/ch]
Ja, ja, frutilla predilecta
     [ch]C7[/ch]
esperando siempre alerta
la llegada de la crema.
[ch]Gm7[/ch]                      [ch]C7[/ch]
Lácteo que a ti te alimenta
te interesa, te rellena,
te quita la cabeza.
[ch]Gm7[/ch]
Ay, si, la cabeza, la cabeza,
       [ch]C7[/ch]
lo primero que te duele                           RebajeJazz
A [ch]A hora de LA[/ch] fiesta.                     E|-10/9/8/7/6/5/4/3-------
       [ch]Gm7-SOLm7[/ch]                          B|-10/9/8/7/6/5/4/3-------
Fiesta,          fiesta programada,         G|------------------------
([ch]DbajeJazz[/ch])                                D|------------------------
fiesta privada o fiesta sorpresa.           A|------------------------
                                            E|------------------------

[ch]C          DO#-DO[/ch]                (x2)
 Lara la la la la larala la...

[ch]G [ch]F  SOL[/ch]    LA#[/ch]        [ch]C[/ch]
Fa, fa, fa , falo que no llega
a esta hora llega a la media hora
   [ch]G[/ch]       [ch]F[/ch]
aprietan, aprietan,
   [ch]G         LA#[/ch]
aprietan las cosas
          [ch]C[/ch]
cuando estan muy calurosas
                  [ch]A#[/ch]
dentro de la nebulosa.
fa, fa, fa, falso que no llega
a esta hora llega a la media hora
  [ch]Am[/ch]
espera, espera
    [ch]D#[/ch]                                           Riff
la veta perfecta,                       E|----------------------
     [ch]D[/ch]                                 B|----------------------
el momento mas preciso                  G|----------------------
     [ch]A#[/ch]                     (Riff)     D|----------------------
pegate la media vuelta, y chau!         A|-5-4-3-22-55-44-3-22--
                                        E|-3-2-1-00-33-22-1-00--


(Solo de Guitarra) el resto sigue haciendo el Riff


Fruta, tó eres muy sabrosa
pero te pudres en la época más deliciosa.
Si si tienes tu tentadera te comen en la primera
te mastican y te dejan.
Claro, te pones bien verdeta
cuando todo el mundo te pasa la boleta
pero asi es el placer y la naturaleza,
todo bien... todo mal... todo a la mierda.

Lara la la la...

Fa, fa, fa , falo que no llega
a esta hora llega a la media hora...
Suggest correction
Give kudos to tab author, rate the tab!
1 2 3 4 5
comments
print report bad tab
guest
You may want to rate the tab now too:
select rating
Wanna post a correction for this tab? Suggest correction