Oops, an error
Loading. Please wait.

Wonderful The Way I Feel tab

by Lucius
310 views 1 this week
no commentswrite comment
1 2 3 4 5
1 last vote to show rating
add to favorites
×
Save as Personal and add changes to this tab that will be seen only by you. Learn more ›
×
You can save this tab as Personal to edit and correct it or add notes. All changes will be seen only by you. Learn more »
launch autoscroll
font size
0
reset
how to read this tab
guitar tuner
edit
Autoscroll
slow
fast
+/-
esc
set tempo
stop
Wonderful (The Way I Feel) - Lucius

Capo on 2

Intro:

  C                                   Am
E-----------------|-----------------|-----------------|-----------------|
B-------1---------|-----------------|----------1------|-----------------|
G---------0-------|------0----0-----|-------2---------|--------0--------|
D----2------2-----|-----2----0------|----2--------2---|------2----------|
A-3---------------|----3----2-------|-0-------------0-|-----------------|
E-----------------|-----------------|-----------------|-----------------|

                                    
  G                                   C 
E-----------------|-----------------|-----------------|-----------------|
B-------0---------|-----------------|----------1------|-----------------|
G------0-0--------|------2----0-----|-------0---0-----|--------0--------|
D-----0-----------|-----0----0------|----2------------|------2----------|
A-----------------|----0----2-------|-3------------3--|-----------------|
E-3---------------|-----------------|-----------------|-----------------|


Verse:
   
  C                                   G                  
E-----------------|-----------------|-----------------|-----------------|
B----------1------|-----------------|-------0---------|-----------------|
G-------0---0-----|--------0--------|------0-0--------|------2----0-----|
D----2------------|------2----------|-----0-----------|-----0----0------|
A-3------------3--|-----------------|-----------------|----0----2-------|
E-----------------|-----------------|-3---------------|-----------------|

           It matters to me

  C                                   G
E-----------------|-----------------|-----------------|-----------------|
B----------1------|----------1------|-------0---------|-----------------|
G-------0---0-----|-------0---0-----|------0-0--------|------2----0-----|
D----2------------|----2---------2--|-----0-----------|-----0----0------|
A-3---------------|-3---------------|-----------------|----0----2-------|
E-----------------|-----------------|-3---------------|-----------------|
 
            Took a long time to get here

  C                                   Em7
E-----------------|-----------------|-----------------|
B----------1------|----------1------|----------0------|
G-------0---0-----|-------0---0-----|--------0--------|
D----2------------|----2---------2--|------0------0---|
A-3---------------|-3---------------|----2------------|
E-----------------|-----------------|-----------------|

            If it would have been easy

  Em7              Am
E---------------|-----------------|-----------------|-----------------|-----------------|
B-------0-------|----------3------|----------3------|----------3------|-----------------|
G-----0---------|--------2--------|--------2--------|--------2--------|------2----0-----|
D---0------0----|------2------2---|------2------2---|------2------2---|-----0----0------|
A-2-------------|---0-------------|---0-------------|---0-------------|----0----2-------|
E---------------|-----------------|-----------------|-----------------|-----------------|

                      I would not have cared.


[Repeat picking pattern for all verses]

Verse II 
C                G              
Like a tropical forest
C                 G
Like a cop on the beat
C              Em7
When all is in order
         Am           
You get lost in the heat


Chorus:
                    C                                   Em7
E-----------------|-----------------|-----------------|-----------------|-----------------|
B-----------------|----------1------|----------1------|----------0------|----------0------|
G------2----0-----|-------0---0-----|-------0---0-----|--------0--------|--------0--------|
D-----0----0------|----2------------|----2---------2--|------0------0---|------0------0---|
A----0----2-------|-3---------------|-3---------------|----2------------|----2------------|
E-----------------|-----------------|-----------------|-----------------|-----------------|

    I feel so        wonderful,                             wonderful, 

  C                 D                 G
E-----------------|-----------------|-----------------|-----------------|
B----------1------|---------3-------|-------0---------|-----------------|
G-------0---0-----|------2----------|------0-0--------|------2----0-----|
D----2------------|---0--------0----|-----0-----------|-----0----0------|
A-3---------------|-0---------------|-----------------|----0----2-------|
E-----------------|-----------------|-3---------------|-----------------|

  wonderful the     way I feel                            I feel so 
  
  C                                   Em7
E-----------------|-----------------|-----------------|-----------------|
B----------1------|----------1------|----------0------|----------0------|
G-------0---0-----|-------0---0-----|--------0--------|--------0--------|
D----2------------|----2---------2--|------0------0---|------0------0---|
A-3---------------|-3---------------|----2------------|----2------------|
E-----------------|-----------------|-----------------|-----------------|

   wonderful,                             wonderful       oooooooooh 

  Am                D                 G           
E-----------------|-----------------|-----------------|-----------------|
B-------1---------|---------3-------|-------0---------|-----------------|
G-----2-----------|------2----------|------0-0--------|------2----0-----|
D---2-------2-----|---0--------0----|-----0-----------|-----0----0------|
A-0---------------|-0---------------|-----------------|----0----2-------|
E-----------------|-----------------|-3---------------|-----------------|
 
   wonderful the    way I             feel


Verse III
C                 G
Doesn't matter to me
C                   G
I could take it or leave it
C                        Em7
I could learn from way back when
           Am
And still live right now

Verse IV
C                   G
With the sun on my shoulder
C                  G
And the wind in my back
C                 Em7
I will never grow older
         Am
At least not in my mind

CHORUS

Verse V
C                               G
I'm going where there ain't no fear
C                              G
I'm going where the spirit is near
C                             Em7
I'm going where the living is easy
                    Am
And the people are kind a new state of mind

Verse VI
C                               G
I'm going where there ain't no police
C                               G 
I'm going where there ain't no disease
C                              Em7
I'm going where there ain't no need
                    Am
To escape from what is only spirits at ease


Ending:
  D
E-----------------|-----------------|-----------------|-----------------|
B---------3-------|---------3-------|---------3-------|---------3-------|
G------2----------|------2----------|------2----------|------2----------|
D---0--------0----|---0--------0----|---0--------0----|---0--------0----|
A-0---------------|-0---------------|-0---------------|-0---------------|
E-----------------|-----------------|-----------------|-----------------|   [Repeat and fade out] 

  Ooooooooohs

            
            
Suggest correction
Creating personal tab
Creating personal tab
You can edit any tab online and save it as your Personal.

You can edit, replace or remove any tab part or add personal notes – all changes will be seen only by you.

Personal tabs can be accessed anytime from any device, even offline.
Learn more »
Give kudos to tab author, rate the tab!
1 2 3 4 5
comments
print report bad tab
guest
You may want to rate the tab now too:
select rating
Wanna post a correction for this tab? Suggest correction