Oops, an error
Loading. Please wait.

Atari tab

version 2
version 2

Whole song

2,180 views 1 this week
4 commentsread comments
1 2 3 4 5
x 4
add to favorites
×
Save as Personal and add changes to this tab that will be seen only by you. Learn more ›
×
You can save this tab as Personal to edit and correct it or add notes. All changes will be seen only by you. Learn more »
launch autoscroll
font size
0
reset
how to read this tab
guitar tuner
edit
Autoscroll
slow
fast
+/-
esc
set tempo
stop
Hey, this is my first tab ever, im almost 100% right on this one. This song is one of my 
song. My band is covering this song at our shows now. We're called Sunrise.Over.Central 
us out at purevolume.com/sunriseovercentral. Happy playing!


Tuning: Standard Tuning
Listen to the song for rhythm.

Intro: 5x                                 After 5x:
e|---------------------------------------------------------------------------|
B|---------------------------------------------------------------------------|
G|----------10-----7-----5-------------------------10-----5------------------|
D|----8-----10-----7-----5-------------------8-----10-----5------------------|
A|----8------8-----5-----3-------------------8------8-----3------------------|
E|----6--------------------------------------6-------------------------------|

Verse: Intro just p.m.

Chorus: 3x                                After 3x:

e|---------------------------------------------------------------------------|
B|---------------------------------------------------------------------------|
G|----3------------7-----5--------------------3-----------5------------------|
D|----3------3-----7-----5--------------------3-----3-----5------------------|
A|----1------3-----5-----3--------------------1-----3-----3------------------|
E|-----------1--------------------------------------1------------------------|

Bridge: (I'm wasted and miserable)

e|-----------------------------------------------------------------------------|
B|-----------------------------------------------------------------------------|
G|-----5-----7-----8-----------------------------------------------------------|
D|-----5-----7-----8-----------------------------------------------------------|
A|-----3-----5-----6-----------------------------------------------------------|
E|-----------------------------------------------------------------------------|

SOLO:


  1st Bar
e|-----13----------------------------------------------------------------------|
B|--------11--10--10--10--11--10--10--11--10--10-------------------------------|
G|-------------------------------------------------12--10----------------------|
D|-----------------------------------------------------------------------------|
A|-----------------------------------------------------------------------------|
E|-----------------------------------------------------------------------------|


e|-----13----------------------------------------------------------------------|
B|-------11--10--10--10--11--10--10--11--10--10--------------------------------|
G|----------------------------------------------12--12---repeat above----------|
D|----------------------------------------------------then go to the third-----|
A|--------------------------------------------------------section--------------|
E|-----------------------------------------------------------------------------|


  Then play this after repeating the first bar.

e|-----13-----12---------------------------------------------------------------|
B|--------13-------------------------------------------------------------------|
G|-----------------------------------------------------------------------------|
D|-----------------------------------------------------------------------------|
A|-----------------------------------------------------------------------------|
E|-----------------------------------------------------------------------------|

Later in the song the solo comes back but its not entirely the same.

   1st Bar

e|-----13----------------------------------------------------------------------|
B|--------11--10--10--10--11--10--10--11--10--10-------------------------------|
G|------------------------------------------------12--10-----------------------|
D|-----------------------------------------------------------------------------|
A|-----------------------------------------------------------------------------|
E|-----------------------------------------------------------------------------|


e|-----13----------------------------------------------------------------------|
B|-------11--10--10--10--11--10--10--11--10--10--------------------------------|
G|----------------------------------------------12--12---repeat above----------|
D|----------------------------------------------(after repeating above,--------|
A|-----------------------------------------------play whats below)-------------|
E|-----------------------------------------------------------------------------|


e|-----13--------15----------13----------15------------------------15-ring-----|
B|-------11--10------11--10------11--10------11--10---11----10-----------------|
G|-------------------------------------------------------10----10--------------|
D|-----------------------------------------------------------------------------|
A|-----------------------------------------------------------------------------|
E|-----------------------------------------------------------------------------|


Thats it! Enjoy playing. It may seem a little confusing but basically you play the first 
then the second bar, then repeat the first bar, then go to the third. This is with both 
where 1st guitar plays in the song.

            
            
Suggest correction
Creating personal tab
Creating personal tab
You can edit any tab online and save it as your Personal.

You can edit, replace or remove any tab part or add personal notes – all changes will be seen only by you.

Personal tabs can be accessed anytime from any device, even offline.
Learn more »
comments
print report bad tab
4 comments total. Showing first comments.
0 reply
Millhouse 30 Aug 26, 2006 03:08 PM

i'm not sure about the bridge, but the rest sounds pretty good.
check out my tab of commitment.

+1 reply
ibanezeric82 103 Aug 24, 2009 07:10 PM

the bridge is D and D# back and forth three times, then go down to C.

So like this (you can figure out the strumming)
e|--------------------------------------------------|
B|--------------------------------------------------|
G|-----7---8---7---8---7---8----5-------------------|
D|-----7---8---7---8---7---8----5-------------------|
A|-----5---6---5---6---5---6----3-------------------|
E|--------------------------------------------------|

AND, at the end of the verse/intro, it goes down to the low F chord.

so this:
Intro: 5x After 5x:
e|-----------------------------------------------------------------|
B|-----------------------------------------------------------------|
G|----------10-----7-----5--------------------------------5--------|
D|----8-----10-----7-----5-------------------8------3-----5--------|
A|----8------8-----5-----3-------------------8------3-----3--------|
E|----6--------------------------------------6------1--------------|

0 reply
arinaandrle015 10 Aug 17, 2017 12:53 AM

The intro, the 577 and 355 are actually on the a string and string. It sounds more like the song

guest
You may want to rate the tab now too:
select rating
Wanna post a correction for this tab? Suggest correction