Oops, an error
Loading. Please wait.

Atari tab

version 3
version 3

Whole song

462 views 1 this week
2 commentsread comments
1 2 3 4 5
2 more votes to show rating
add to favorites
×
Save as Personal and add changes to this tab that will be seen only by you. Learn more ›
×
You can save this tab as Personal to edit and correct it or add notes. All changes will be seen only by you. Learn more »
launch autoscroll
font size
0
reset
how to read this tab
guitar tuner
edit
Autoscroll
slow
fast
+/-
esc
set tempo
stop
Author
Difficulty
###############################
# Title: Atari
# Artist: Lucky Boys Confusion
# Album: Commitment
# Tuning: Standard (eBGDAE)
###############################

I hope everyone enjoys this tab of this killer song! Go LBC!
Go buy their CDs, and go to their concerts, they rock!

Key:\
x = Mute scratch (mute string with left/fret hand and strum)
. = Palm mute
h = hammer on
p = pull off
/ = slide



INTRO
e|--------------------------------------------------------------|
B|---------6-6--------------------------6-6---------------------|
G|----3----5-5----7-7--5-5--x-x----3----5-5----7-7--x-x-x--5----|
D|----3----3-3----7-7--5-5--x-x----3----3-3----7-7--x-x-x--5----|
A|----1-----------5-5--3-3--x-x----1-----------5-5--x-x-x--3----|
E|--------------------------x-x---------------------x-x-x-------|




INTRO - Part 2
e|----13------------------------------------------15----13----|
B|-------11---10-10-10h11---10-10-10h11---10-10---------------|
G|------------------------------------------------------------|
D|------------------------------------------------------------|
A|------------------------------------------------------------|
E|------------------------------------------------------------|

e|----13------------------------------------------------------|
B|-------11---10-10-10h11---10-10-10h11---10-10---------------|
G|------------------------------------------------12p10-10----|
D|------------------------------------------------------------|
A|------------------------------------------------------------|
E|------------------------------------------------------------|

e|----13------------------------------------------15----13----|
B|-------11---10-10-10h11---10-10-10h11---10-10---------------|
G|------------------------------------------------------------|
D|------------------------------------------------------------|
A|------------------------------------------------------------|
E|------------------------------------------------------------|

e|-----13--------------12------------|
B|-------------13--------------------|
G|-----------------------------------|
D|-----------------------------------|
A|-----------------------------------|
E|-----------------------------------|

(Meanwhile Guitar 2 plays:)
e|------------------------------------------------------------|
B|---------6-6--------------------------6-6-------------------|
G|----3----5-5----7-7--5-5--5------3----5-5----7-7--5-5--5----|
D|----3----3-3----7-7--5-5--5------3----3-3----7-7--5-5--5----|   x 3
A|----1-----------5-5--3-3--3------1-----------5-5--3-3--3----|
E|------------------------------------------------------------|

e|-------------------|
B|-------------------|
G|----3---------5----|
D|----3----3----5----|
A|----1----3----3----|
E|---------1---------|



VERSE
e|-----------------------------------|
B|---------------6-6-6-6-------------|
G|----3-3-3-3----5-5-5-5----7-7-7-7--|    x 7 use
D|----3-3-3-3----3-3-3-3----7-7-7-7--|  Endings below
A|----1-1-1-1---------------5-5-5-5--|
E|-----------------------------------|
      . .   .    . .   .    . .   .
    Endings:
    1st         2nd         3rd         4th
e|-----------|-----------|-----------|-----------|
B|-----------|-----------|-----------|-----------|
G|--5-5-5-5--|--5-5-5----|--5-5-5-5--|--5-5-5----|
D|--5-5-5-5--|--5-5-5----|--5-5-5-5--|--5-5-5----|
A|--3-3-3-3--|--3-3-3----|--3-3-3-3--|--3-3-3----|
E|-----------|-----------|-----------|-----------|
    . .   .     . .         . .   .     . .
    5th         6th         7th
e|-----------|-----------|-----------|
B|-----------|-----------|-----------|
G|--5-5-5-5--|--5-5-5----|--5-5-5-x--|
D|--5-5-5-5--|--5-5-5-5--|--5-5-5-x--|
A|--3-3---3--|--3-3-3-5--|--3-3-3-x--|
E|-----------|-----------|-----------|
    . .         . .         . .
e|--------------------------------------------|
B|--------------------------------------------|
G|----3-3-3-------------5-5-5-5----x-x-x-x----|
D|----3-3-3----3-3-3----5-5-5-5----x-x-x-x----|
A|----1-1-1----3-3-3----3-3-3-3----x-x-x-x----|
E|-------------1-1-1---------------x-x-x-x----|




CHORUS
e|------------------------------------------------|
B|------------------------------------------------|
G|----3---------------------7--7-------5--5--5----|
D|----3----------3--3-------7--7-------5--5--5----|   x 3
A|----1----------3--3-------5--5-------3--3--3----|
E|---------------1--1-----------------------------|

e|------------------------------------------------|
B|------------------------------------------------|
G|----3---------------------5---------------------|
D|----3----------3----------5---------------------|
A|----1----------3----------3---------------------|
E|---------------1--------------------------------|




VERSE 2
e|------------------------------------------------|
B|---------------6-6-6-6--------------------------|
G|----3-3-3-3----5-5-5-5----7-7-7-7----5-5-5-5----|
D|----3-3-3-3----3-3-3-3----7-7-7-7----5-5-5-5----|   x 2
A|----1-1-1-1---------------5-5-5-5----3-3-3-3----|
E|------------------------------------------------|
      . .   .    . .   .    . .   .    . .   .
e|------------------------------------------------|
B|---------------5-5-5----------------------------|
G|----5-5-5------5-5-5------7-7-7------5-5-5------|
D|----3-3-3------3-3-3------7-7-7------5-5-5------|
A|----1-1-1-----------------5-5-5------3-3-3------|
E|------------------------------------------------|
      . .        . .        . .        . .
e|------------------------------------------------|
B|------------------------------------------------|
G|----3-3-3-----------------5-5-5-5----x-x-x-x----|
D|----3-3-3------3-3-3------5-5-5-5----x-x-x-x----|
A|----1-1-1------3-3-3------3-3-3-3----x-x-x-x----|
E|---------------1-1-1-----------------x-x-x-x----|




CHORUS 2
e|------------------------------------------------|
B|------------------------------------------------|
G|----3---------------------7--7-------5--5--5----|
D|----3----------3--3-------7--7-------5--5--5----|   x 3
A|----1----------3--3-------5--5-------3--3--3----|
E|---------------1--1-----------------------------|

e|------------------------------------------------|
B|------------------------------------------------|
G|----3-3-3-----------------5-5-5-5----2-2-2-2----|
D|----3-3-3------3-3-3------5-5-5-5----2-2-2-2----|
A|----1-1-1------3-3-3------3-3-3-3----0-0-0-0----|
E|---------------1-1-1----------------------------|

e|------------------------------------------------|
B|------------------------------------------------|
G|----3---------------------7--7-------5--5--5----|
D|----3----------3--3-------7--7-------5--5--5----|   x 3
A|----1----------3--3-------5--5-------3--3--3----|
E|---------------1--1-----------------------------|

e|------------------------------------------------|
B|------------------------------------------------|
G|----3---------------------5---------------------|
D|----3----------3----------5---------------------|
A|----1----------3----------3---------------------|
E|---------------1--------------------------------|




BRIDGE
 (Weird stuff before this... unsure, small licks and effects)
e|--------------------------------------------|
B|--------------------------------------------|
G|----7-7-7-7----8-8-8-8--------5----5-5-5----|
D|----7-7-7-7----8-8-8-8--------5----5-5-5----| then pick slide down!
A|----5-5-5-5----6-6-6-6--------3----3-3-3----|
E|--------------------------------------------|




SOLO (similar to INTRO - Part 2)
e|----13--------------------------------------15----13----|
B|-------11---10-10--11---10-10--11---10-10---------------|
G|--------------------------------------------------------|
D|--------------------------------------------------------|
A|--------------------------------------------------------|
E|--------------------------------------------------------|

e|----13--------------------------------------15----13----|
B|--------11---10-10--11---10-10--11---10-10--------------|
G|--------------------------------------------------------|
D|--------------------------------------------------------|
A|--------------------------------------------------------|
E|--------------------------------------------------------|

e|----13---------15------------13-------------------------|
B|--------11-10---------11-10---------11-10---------------|
G|--------------------------------------------------------|
D|--------------------------------------------------------|
A|--------------------------------------------------------|
E|--------------------------------------------------------|

e|----15-------------------13-----------------------------|
B|--------11-10---/15--11------11--15--------13-----------|
G|--------------------------------------------------------|
D|--------------------------------------------------------|
A|--------------------------------------------------------|
E|--------------------------------------------------------|





VERSE 3 (Lyrics are more similar to CHORUS)
e|------------------------------------------------|
B|------------------------------------------------|
G|---------------5-5-5-5--------------------------|
D|----3-3-3-3----3-3-3-3----7-7-7-7----5-5-5-5----|   x 3
A|----1-1-1-1---------------5-5-5-5----3-3-3-3----|
E|------------------------------------------------|
      . . . .    . . . .    . . . .    . . . .
e|------------------------------------------------|
B|------------------------------------------------|
G|---------------5-5-5-5--------------------------|
D|----3-3-3-3----3-3-3-3----5-5-5-5-5-5--2--7-----|
A|----1-1-1-1---------------3-3-3-3-3-3--0--5-----|
E|------------------------------------------------|
      . . . .    . . . .    . . . . . .  .  .
e|------------------------------------------------|
B|------------------------------------------------|
G|---------------5-5-5-5--------------------------|
D|----3-3-3-3----3-3-3-3----7-7-7-7----5-5-5-5----|   x 2
A|----1-1-1-1---------------5-5-5-5----3-3-3-3----|
E|------------------------------------------------|
      . . . .    . . . .    . . . .    . . . .
(Slowy release palm mute on this last one)
e|------------------------------------------------|
B|------------------------------------------------|
G|---------------5-5-5-5--------------------------|
D|----3-3-3-3----3-3-3-3----7-7-7-7----5-5-5-5----|
A|----1-1-1-1---------------5-5-5-5----3-3-3-3----|
E|------------------------------------------------|

e|------------------------------------------------|
B|------------------------------------------------|
G|----3---------------------5----------x-x-x-x----|
D|----3----------3----------5----------x-x-x-x----|
A|----1----------3----------3----------x-x-x-x----|
E|---------------1---------------------x-x-x-x----|




CHORUS 3
e|------------------------------------------------|
B|------------------------------------------------|
G|----3---------------------7--7-------5--5--5----|
D|----3----------3--3-------7--7-------5--5--5----|   x 3
A|----1----------3--3-------5--5-------3--3--3----|
E|---------------1--1-----------------------------|

e|------------------------------------------------|
B|------------------------------------------------|
G|----3---------------------5---------5-----------|
D|----3----------3----------5---------5-----------|
A|----1----------3----------3---------3--0-0-1----|
E|---------------1--------------------------------|



OUTRO
e|------------------------------------------------|
B|------------------------------------------------|
G|----3-3-3-----------------7-7-7------5--5--5----|
D|----3-3-3------3-3-3------7-7-7------5--5--5----|   x 3
A|----1-1-1------3-3-3------5-5-5------3--3--3----|
E|---------------1-1-1----------------------------|

e|------------------------------------------------|
B|------------------------------------------------|
G|----3---------------------5---------------------|
D|----3----------3----------5---------------------|
A|----1----------3----------3---------------------|
E|---------------1--------------------------------|

e|------------------------------------------------|
B|------------------------------------------------|
G|----3-3-3-----------------5-5-5-5-5-5-5-5-------|
D|----3-3-3------3-3-3------5-5-5-5-5-5-5-5-------|   x 5
A|----1-1-1------3-3-3------3-3-3-3-3-3-3-3-------|
E|---------------1-1-1----------------------------|


e|------------------------------------------------|
B|------------------------------------------------|
G|----3---------------------5---------------------|
D|----3----------3----------5---------------------|
A|----1----------3----------3---------------------|
E|---------------1--------------------------------|


e|------------------------------------------------|
B|------------------------------------------------|
G|----5-------------------------------------------|
D|----5-------------------------------------------|
A|----3-------------------------------------------|
E|------------------------------------------------|

            
            
Suggest correction
Creating personal tab
Creating personal tab
You can edit any tab online and save it as your Personal.

You can edit, replace or remove any tab part or add personal notes – all changes will be seen only by you.

Personal tabs can be accessed anytime from any device, even offline.
Learn more »
Give kudos to tab author, rate the tab!
1 2 3 4 5
comments
print report bad tab
2 comments total.
-1 reply
ibanezeric82 103 Aug 24, 2009 07:12 PM

see version two. it's closer.

0 reply
meswhitesox3 115 Feb 27, 2013 01:16 PM

Updated this, I think the higher intro and solo sound much more like the album.

guest
You may want to rate the tab now too:
select rating
Wanna post a correction for this tab? Suggest correction