Oops, an error
Loading. Please wait.

Atari tab

version 5
version 5

Whole song

296 views 1 this week
1 commentread comment
1 2 3 4 5
1 last vote to show rating
add to favorites
×
Save as Personal and add changes to this tab that will be seen only by you. Learn more ›
×
You can save this tab as Personal to edit and correct it or add notes. All changes will be seen only by you. Learn more »
launch autoscroll
font size
0
reset
how to read this tab
guitar tuner
edit
Autoscroll
slow
fast
+/-
esc
set tempo
stop
tabbed by nick carlson
e mail  guitarheroiam44@aim.com

this song repeats itself so if i accidentally tabbed it wrong  im sure you can figure it out

standard tuning - e b g d a e


e|-----------------|           e|----------|
b|-----------------|           b|----------|
g|----55-----------|           g|----------|
d|-3--33--7-7--55--|  x5       d|-3-----5--|
a|-1------5-5--33--|           a|-1--3--3--|
e|-----------------|           e|----1-----|

each of the following power cords has 3 in its series. the first two are palm muted and 
second is not palm muted


e|-------------------|         e|------------------------------|
b|-------------------|         b|------------------------------|
g|-------55-5--------|         g|----5------5------5------4/5--|
d|-33-3--33-3--77-7--|  x4     d|-33-3---33-3---33-3---33-2/3--|  x3
a|-11-1--------55-5--|         e|------------------------------|
e|-------------------|         a|------------------------------|


e|----------------------------|
b|----------------------------|
g|----------------------------|
d|-3333--------55555---XXXX---|
a|-1111--3333--33333---XXXX---|
e|-------1111----------XXXX---|


e|-----------------|           e|----------|
b|-----------------|           b|----------|
g|----55-----------|           g|----------|
d|-3--33--7-7--55--|  x3       d|-3-----5--|
a|-1------5-5--33--|           a|-1--3--3--|
e|-----------------|           e|----1-----|

e|-----------------|           e|---------------|
b|-----------------|           b|---------------|
g|----55-----------|           g|---------------|
d|-3--33--7-7--55--|  x3       d|-3-----5-----3-|
a|-1------5-5--33--|           a|-1--3--3-----1-|
e|-----------------|           e|----1----------|

e|-----------------|           e|----------|
b|-----------------|           b|----------|
g|----55-----------|           g|----------|
d|-3--33--7-7--55--|  x3       d|-3-----5--|
a|-1------5-5--33--|           a|-1--3--3--|
e|-----------------|           e|----1-----|


there is a little bridge part that i could quite figure out but the little segment after 
is:

e|-------------------------|
b|-------------------------|
g|-------------------------|
d|-------------------------|
a|-7-7-7-7---8-8-8-8---10--|
e|-5-5-5-5---6-6-6-6---8---|

e|-----------------|           e|---------------|
b|-----------------|           b|---------------|
g|----55-----------|           g|---------------|
d|-3--33--7-7--55--| x3        d|-3-----5----5--|
a|-1------5-5--33--|           a|-1--3--3----3--|
e|-----------------|           e|----1----------|

 pm.....................          pm...................
e|----------------------|        e|--------------------|
b|----------------------|        b|--------------------|
g|------5555------------|        g|--------------------|
d|-3333-3333-7777-5555--|  x3    d|-3333------5555555--|
a|-1111------5555-3333--|        a|-1111-3333-3333333--|
e|----------------------|        e|------1111----------|

 pm.....................
e|----------------------|        e|--------------|
b|----------------------|        b|--------------|
g|------5555------------|        g|--------------|
d|-3333-3333-7777-5555--|  x3    d|-3-----5--XXXX|
a|-1111------5555-3333--|        a|-1--3--3--XXXX|
e|----------------------|        e|----1-----XXXX|

e|-----------------|           e|----------|
b|-----------------|           b|----------|
g|----55-----------|           g|----------|
d|-3--33--7-7--55--|  x3       d|-3-----5--| x7
a|-1------5-5--33--|           a|-1--3--3--|
e|-----------------|           e|----1-----|
Suggest correction
Creating personal tab
Creating personal tab
You can edit any tab online and save it as your Personal.

You can edit, replace or remove any tab part or add personal notes – all changes will be seen only by you.

Personal tabs can be accessed anytime from any device, even offline.
Learn more »
Give kudos to tab author, rate the tab!
1 2 3 4 5
comments
print report bad tab
1 comment total.
-1 reply
ibanezeric82 103 Aug 24, 2009 07:13 PM

see version two. its closer.

guest
You may want to rate the tab now too:
select rating
Wanna post a correction for this tab? Suggest correction