Oops, an error
Loading. Please wait.

Broken tab

1,261 views 1 this week
1 commentread comment
1 2 3 4 5
2 more votes to show rating
add to favorites
×
Save as Personal and add changes to this tab that will be seen only by you. Learn more ›
×
You can save this tab as Personal to edit and correct it or add notes. All changes will be seen only by you. Learn more »
launch autoscroll
font size
0
reset
how to read this tab
guitar tuner
edit
Autoscroll
slow
fast
+/-
esc
set tempo
stop
Author
The chords for the intro are like:

||------------------|
||------------------|
|--11-6-7/99-7/99---|
|--11-6-7/99-7/99---|
|--9--4-5/77-5/77---|
||------------------|

and that repeats a few times til the verse:

|------------------|
|------------------|
|------77----------|
|--44--77-777-999--|
|--44--55-777-999--|
|--22-----555-777--|

and you repeat that through the verses, ending on the 'A' chord, then the chorus:

|---------------|
|---------------|
|--77----999----|
|--77-77-999-9--|
|--55-77-777-9--|
|-----55-----7--|  ending on the 'E' chord, then the second verse played the same as the first

then there's a small interlude where they play the intro chords, then the bridge when
singing "not broken", which is just the chords for the verse. then there's the third verse
the end, then the chorus played quietly repeats a few times at the end. those three 
are all you really need to know. not so hard!

            
            
Suggest correction
Creating personal tab
Creating personal tab
You can edit any tab online and save it as your Personal.

You can edit, replace or remove any tab part or add personal notes – all changes will be seen only by you.

Personal tabs can be accessed anytime from any device, even offline.
Learn more »
Give kudos to tab author, rate the tab!
1 2 3 4 5
comments
print report bad tab
1 comment total.
0 reply
ibanezeric82 103 Aug 24, 2009 07:34 PM

You got the first part of the verse right. It does that once, then this part:
|------------------|
|------------------|
|------77----------|
|--44--77-777-222--|
|--44--55-777-222--|
|--22-----555-000--|

THIS IS THE CORRECT CHORUS:
|---------------|
|---------------|
|--77-----------|
|--77-77-222-44-|
|--55-77-222-44-|
|-----55-000-22-|

guest
You may want to rate the tab now too:
select rating
Wanna post a correction for this tab? Suggest correction