Oops, an error
Loading. Please wait.

Mr Wilmington tab

1,490 views 1 this week
7 commentsread comments
1 2 3 4 5
x 5
add to favorites
×
Save as Personal and add changes to this tab that will be seen only by you. Learn more ›
×
You can save this tab as Personal to edit and correct it or add notes. All changes will be seen only by you. Learn more »
launch autoscroll
font size
0
reset
how to read this tab
guitar tuner
edit
Autoscroll
slow
fast
+/-
esc
set tempo
stop
Difficulty
This is my first tab so go easy on me


Intro

e------------------------------------------------------------------------------------|
B------------------------------------------------------------------------------------|
G-----------------------------------9-9-9----7-7-7—5-5-5-5-5-5-----------------------|
D ----------------------------------7-7-7----5-5-5—3-3-3-3-3-3-----------------------|
A---3-3-3-3-3-3--9-9-9-9-9-9---------------------------------------------------------|
E---5-5-5-5-5-5--7-7-7-7-7-7---------------------------------------------------------|


Verse

e------------------------------------------------------------------|
B------------------------------------------------------------------|
G------------------9~ -----7~ -----5~ -----------------------------|
D -----------------7~ -----5~ -----3~ -----------------------------|
A—5~ ----9~ -------------------------------------------------------|
E—3~ ----7~--------------------------------------------------------|

Pre-Chorus
e------------------------------------------------------------------|
B------------------------------------------------------------------|
G------------------------------------------------------------------|
D -------------------9-9-9----7-7-7—5-5-5-5-5-5--------------------|
A--5~ ----9~ ------7-7-7----5-5-5—3-3-3-3-3-3----------------------|
E--3~ ----7~ ------------------------------------------------------|

Chorus


e------------------------------------------------------------------------------------|
B------------------------------------------------------------------------------------|
G-----------------------------------9-9-9----7-7-7—5-5-5-5-5-5-----------------------|
D ----------------------------------7-7-7----5-5-5—3-3-3-3-3-3-----------------------|
A---3-3-3-3-3-3--9-9-9-9-9-9---------------------------------------------------------|
E---5-5-5-5-5-5--7-7-7-7-7-7---------------------------------------------------------|

ORDER–
Intro x2
Verse x 3
Pre-Chorus x1
Chorus x2
Verse x1
Pre-Chorus x3
Chorus x3
Verse x1
Pre-Chorus x1
Verse x1
Chorus x3


Im Out.....DaStu19 4EVER..WOOOOOOOOOOO

            
            
Suggest correction
Creating personal tab
Creating personal tab
You can edit any tab online and save it as your Personal.

You can edit, replace or remove any tab part or add personal notes – all changes will be seen only by you.

Personal tabs can be accessed anytime from any device, even offline.
Learn more »
comments
print report bad tab
7 comments total. Showing first comments.
0 reply
Thatoneguy123 10 Jun 04, 2007 01:20 PM

are u sure the intro isnt like this?

e------------------------------------------------------------------------------------|
B------------------------------------------------------------------------------------|
G-------------------------------------------------—----------------------------------|
D-----------------------------------9-9-9----7-7-7—5-5-5-5-5-5-----------------------|
A---3-3-3-3-3-3--9-9-9-9-9-9--------7-7-7----5-5-5-3-3-3-3-3-3-----------------------|
E---5-5-5-5-5-5--7-7-7-7-7-7---------------------------------------------------------|

+1 reply
Thatoneguy123 10 Jun 21, 2007 01:43 PM

oops i didnt even change it.

Just the first part..


e----------------------------
B----------------------------
G----------------------------
D----------------------------
A---5-5-5-5-5-5--9-9-9-9-9-9-
E---3-3-3-3-3-3--7-7-7-7-7-7-

+2 reply
Sattelight897 10 Apr 13, 2008 05:42 PM

the first correction is right

guest
Wanna post a correction for this tab? Suggest correction