Oops, an error
Loading. Please wait.

Woah Billy bass

182 views 1 this week
no commentswrite comment
1 2 3 4 5
3 more votes to show rating
add to favorites
×
Save as Personal and add changes to this tab that will be seen only by you. Learn more ›
×
You can save this tab as Personal to edit and correct it or add notes. All changes will be seen only by you. Learn more »
launch autoscroll
font size
0
reset
guitar tuner
edit
Autoscroll
slow
fast
+/-
esc
set tempo
stop
Author
Difficulty
Artist: Lucky Soul
Song: Woah Billy!
Single: Woah Billy!
Tabber: buli

BASS TABS - G D A E !

Read this firstly:
I don`t have too much experience with tabbing,
and sometimes I don`t know what to write. Please
comment, so I can apply your tips next time!


Please notice that at the Intro, the "4" (C#) is played
only once, in the first time.
When in the Bridge, the "3" (G) is optional. If you play
it, don`t play the first "5" (the G in the next octave),
only the second time.

Intro [Dark times ahead]
G----------------------------------------------|
D----------------------------------------------| (2x)
A--5------4---2------4---5------4---2----4*----|
E----------------------------------------------|


Bridge
G-------------|
D-------------|  If you play
A-------------|  the G
E--5-5-5-(3)--|


Chorus [Woah Billy]
G------------------------------------------------------------------|
D--5-5-----5-5-----5-5-----5-5-----7-7-----7-7-----7-7-----7-7-----| (2x)
A------7-5-----7-5-----7-5-----7-5-----9-7-----9-7-----9-7-----9-7-|
E------------------------------------------------------------------|


Pre-Chorus
G-----------------------------------|
D-----------------------------------|
A---5----2s---4--5----2-------------|
E-------------------------5-5-5-----|


Chorus
G------------------------------------------------------------------|
D--5-5-----5-5-----5-5-----5-5-----7-7-----7-7-----7-7-----7-7-----| (2x)
A------7-5-----7-5-----7-5-----7-5-----9-7-----9-7-----9-7-----9-7-|
E------------------------------------------------------------------|


Verse
G-------------------------------------------------------------|
D-------------------------------------------------------------|
A-------------------------------------------------------------|
E--7s----2----7s----2--1--3-3-3-3-3-3-3-3-3-3-3-3-3-3-3-3s----|

G----------------------------------------|
D----------------------------------------|
A----------------------------------------|
E--5-5-5-5-5-5-5-5-5-5-5-5-5-5-5-5-------|


Break (I think)
G------------------------------------------------------------------|
D------7------7---------------------7------7-----------------------|
A--5-----5----------5----7-5----5-----5----------5----7------------|
E----------------7----7-----------------------7----7-----7-7-5-(3)-|


Chorus
G---------------------------------------------------------------------|
D----5-5-----5-5-----5-5-----5-5------7-7-----7-7-----7-7-----7-7-----| (2x)
A--------7-5-----7-5-----7-5-----7-5------9-7-----9-7-----9-7-----9-7-|
E---------------------------------------------------------------------|

Verse
G-------------------------------------------------------------|
D-------------------------------------------------------------|
A-------------------------------------------------------------|
E--7s----2----7s----2--1--3-3-3-3-3-3-3-3-3-3-3-3-3-3-3-3s----|

G------------------------------------|
D------------------------------------|
A------------------------------------|
E--5-5-5-5-5-5-5-5-5-5-5-5-5-5-5-5---|


Bass Solo ?
G-----------------------------------------------------|
D----------0-0-2-0---------0-0-2-0---------2-2-4-2----|
A------2-2-------------2-2-------------4-4------------|
E--3-3-------------3-3-------------5-5----------------|


G-------------------------------------------------------------------|
D----------0-0-2-0---------0-0-2-0----------------------------------|
A------2-2-------------2-2------------------------------------------|
E--3-3-------------3-3--------------2-2-2-2-2-2-2-2-2-2-2-2-2-2-2-2-|


Bridge
G---------------------------------------------------------|
D---------------------------------------------------------|
A---------------------------------------------------------|
E--7~~~~~~-12~~~~~~-3~~~~~~-5~~~~~~-6----7-7-7-7-7-7-7-7s-|

G---------------------------------------------------------|
D---------------------------------------------------------|
A---------------------------------10-10-10-10-10-10-10-10-|
E-12--12--12--12--12--12--12--12--------------------------|

G--------------------------------------------------------------------------|
D--------------------------------------------------------------------------|
A--10-10-10-10-10-10-10-10-12-12-12-12-12-12-12-12-12-12-12-12-12-12-12-12-|
E--------------------------------------------------------------------------|


Pre-Chorus
G---------------------------------------|
D---------------------------------------|
A--5~~~~4--2~~~~4--5~~~~4--2~~~~--------|
E--------------------------------5-5-3--|

Chorus
G---------------------------------------------------------------------|
D----5-5-----5-5-----5-5-----5-5------7-7-----7-7-----7-7-----7-7-----| (4x)
A--------7-5-----7-5-----7-5-----7-5------9-7-----9-7-----9-7-----9-7-|
E---------------------------------------------------------------------|

Outro
G------------------------------------------------|
D------------------------------------------------|
A--5~~~~~~~~~~~~~~~~~~- to the end of the song --|
E------------------------------------------------|


I`m not completely sure about the song structure. I don`t know it very well,
so comment please. I may change, ok? Oh, and if someone have the lyrics,
PLEASE post, ok?

buli

            
            
Suggest correction
Creating personal tab
Creating personal tab
You can edit any tab online and save it as your Personal.

You can edit, replace or remove any tab part or add personal notes – all changes will be seen only by you.

Personal tabs can be accessed anytime from any device, even offline.
Learn more »
Give kudos to tab author, rate the tab!
1 2 3 4 5
comments
print report bad tab
guest
You may want to rate the tab now too:
select rating
Wanna post a correction for this tab? Suggest correction