Oops, an error
Loading. Please wait.

Cant Surf Tab

1 view 1 this week
no commentswrite comment
1 2 3 4 5
3 more votes to show rating
add to favorites
launch autoscroll
font size
0
reset
how to read this tab
guitar tuner
Autoscroll
slow
fast
+/-
esc
set tempo
stop
Help us to improve Ultimate-Guitar.com Take our survey!
×
-------------------------------------------------------------------------------
                Lucy and the Rats - Can't Surf
-------------------------------------------------------------------------------
Tabbed by: squintyjoefan
E-mail: squintyjoefan@hotmail.co.uk


Track can be found here: https://punkrockraduno.bandcamp.com/track/can-t-surf
Also check out http://www.dirtywaterrecords.co.uk/lucy/
and https://www.facebook.com/Lucy-and-the-Rats-817424101645809/

Tuning: Standard (EADGBe)

[Intro]
[0.00-0.05]
e|---------------------------------------------------------------------------|
B|---------------------------------------------------------------------------|
G|---------------------------------------------------------------------------|
D|-4555-4555-4555----4555-4555-4555------------------------------------------|
A|-4555-4555-4555----4555-4555-4555------------------------------------------|
E|-2333-2333-2333----2333-2333-2333------------------------------------------|

[Verse]
[0.06-0.18]
e|-3-33-333--4-44-444--3-33-333--5-55-555------------------------------------|
B|-3-33-333--4-44-444--5-55-555--7-77-777------------------------------------|
G|-4-44-444--4-44-444--5-55-555--7-77-777------------------------------------|
D|-5-55-555--4-44-444--5-55-555--7-77-777------------------------------------|
A|-5-55-555--2-22-222--3-33-333--5-55-555------------------------------------|
E|-3-33-333------------------------------------------------------------------|
This chord progession is played twice

[Pre-Chorus]
(I can't find my buddies) [0.18-0.23]
e|---------------------------------------------------------------------------|
B|---------------------------------------------------------------------------|
G|-5-55-555-7-77-777---------------------------------------------------------|
D|-5-55-555-7-77-777-5-55-555-5-55-555---------------------------------------|
A|-3-33-333-5-55-555-5-55-555-5-55-555---------------------------------------|
E|-------------------3-33-333-3-33-333---------------------------------------|

[Verse]
[0.24-0.35]
e|-3-33-333--4-44-444--3-33-333--5-55-555------------------------------------|
B|-3-33-333--4-44-444--5-55-555--7-77-777------------------------------------|
G|-4-44-444--4-44-444--5-55-555--7-77-777------------------------------------|
D|-5-55-555--4-44-444--5-55-555--7-77-777------------------------------------|
A|-5-55-555--2-22-222--3-33-333--5-55-555------------------------------------|
E|-3-33-333------------------------------------------------------------------|

[Pre-Chorus]
(I can't find my buddies) [0.35-0.40]
e|---------------------------------------------------------------------------|
B|---------------------------------------------------------------------------|
G|-5-55-555-7-77-777---------------------------------------------------------|
D|-5-55-555-7-77-777-5-55-555-5-55-555---------------------------------------|
A|-3-33-333-5-55-555-5-55-555-5-55-555---------------------------------------|
E|-------------------3-33-333-3-33-333---------------------------------------|

[Chorus]
(I don't want to go surfing) [0.41-0.55]
e|---------------------------------------------------------------------------|
B|---------------------------------------------------------------------------|
G|-5-55-55-7-77-77-----------------5-55-55-7-77-77---------------------------|
D|-5-55-55-7-77-77-5-55-55-2-22-22-5-55-55-7-77-77-4555-4555-----------------|
A|-3-33-33-5-55-55-5-55-55-2-22-22-3-33-33-5-55-55-4555-4555-----------------|
E|-----------------3-33-33-0-00-00-----------------2333-2333-----------------|

[Verse]
[0.56-1.07]
e|-3-33-333--4-44-444--3-33-333--5-55-555------------------------------------|
B|-3-33-333--4-44-444--5-55-555--7-77-777------------------------------------|
G|-4-44-444--4-44-444--5-55-555--7-77-777------------------------------------|
D|-5-55-555--4-44-444--5-55-555--7-77-777------------------------------------|
A|-5-55-555--2-22-222--3-33-333--5-55-555------------------------------------|
E|-3-33-333------------------------------------------------------------------|
This chord progession is played twice

[Pre-Chorus]
(I can't find my buddies) [1.07-1.13]
e|---------------------------------------------------------------------------|
B|---------------------------------------------------------------------------|
G|-5-55-555-7-77-777---------------------------------------------------------|
D|-5-55-555-7-77-777-5-55-555-5-55-555---------------------------------------|
A|-3-33-333-5-55-555-5-55-555-5-55-555---------------------------------------|
E|-------------------3-33-333-3-33-333---------------------------------------|

[Chorus]
(I don't want to go surfing) [1.13-1.36]
e|---------------------------------------------------------------------------|
B|---------------------------------------------------------------------------|
G|-5-55-55-7-77-77-----------------5-55-55-7-77-77---------------------------|
D|-5-55-55-7-77-77-5-55-55-2-22-22-5-55-55-7-77-77-5555-5555-----------------|
A|-3-33-33-5-55-55-5-55-55-2-22-22-3-33-33-5-55-55-5555-5555-----------------|
E|-----------------3-33-33-0-00-00-----------------3333-3333-----------------|

[Solo]
(Verse is played over it) [1.37-1.48]
e|---------------------------------------------------------------------------|
B|-8-8-10-8-7--7-7-8--8-8-7--5-5-3-5-3---------------------------------------|
G|--------------------------------------5-5-5--4-4-4/2-----------------------|
D|---------------------------------------------------------------------------|
A|---------------------------------------------------------------------------|
E|---------------------------------------------------------------------------|
This part is played twice

[Solo]
(Pre-Chorus is layed over it)[1.48-1.54]
e|---------------------------------------------------------------------------|
B|---------------------------------------------------------------------------|
G|------------------2-0-----------7-7-7-5-5-4-0------------------------------|
D|-2-2-5-4-2--0-0-0-----5-5-5-5-5--------------------------------------------|
A|---------------------------------------------------------------------------|
E|---------------------------------------------------------------------------|

[Chorus]
(I don't want to go surfing) [1.54-2.13]
e|---------------------------------------------------------------------------|
B|---------------------------------------------------------------------------|
G|-5-55-55-7-77-77-----------------5-55-55-7-77-77---------------------------|
D|-5-55-55-7-77-77-5-55-55-2-22-22-5-55-55-7-77-77---------------------------|
A|-3-33-33-5-55-55-5-55-55-2-22-22-3-33-33-5-55-55---------------------------|
E|-----------------3-33-33-0-00-00-------------------------------------------|

[Final Chords] 
[2.13-2.21]
e|---------------------------------------------------------------------------|
B|---------------------------------------------------------------------------|
G|-5-55-55-7-77-77-5-55-55-7-77-77-5-55-55-7-77-77---------------------------|
D|-5-55-55-7-77-77-5-55-55-7-77-77-5-55-55-7-77-77---------------------------|
A|-3-33-33-5-55-55-3-33-33-5-55-55-3-33-33-5-55-55---------------------------|
E|---------------------------------------------------------------------------|

[Outro]
[2.21-2.32]
e|---------------------------------------------------------------------------|
B|---------------------------------------------------------------------------|
G|---------------------------------------------------------------------------|
D|-4555-4555-4555----4555-4555-4555------------------------------------------|
A|-4555-4555-4555----4555-4555-4555------------------------------------------|
E|-2333-2333-2333----2333-2333-2333------------------------------------------|
Played twice
 

************************************

| /  Slide up

************************************
Suggest correction
Give kudos to tab author, rate the tab!
1 2 3 4 5
comments
print report bad tab
guest
You may want to rate the tab now too:
select rating
Wanna post a correction for this tab? Suggest correction