Oops, an error
Loading. Please wait.

Floral Dresses tab

622 views 66 this week
no commentswrite comment
1 2 3 4 5
3 more votes to show rating
add to favorites
×
Save as Personal and add changes to this tab that will be seen only by you. Learn more ›
×
You can save this tab as Personal to edit and correct it or add notes. All changes will be seen only by you. Learn more »
launch autoscroll
font size
0
reset
how to read this tab
guitar tuner
edit
Autoscroll
slow
fast
+/-
esc
set tempo
stop
[Verse]
D |---0---0---0---0---0---0---0---0---------------|
A |---0---0---0---0---0---0---0---0---------------|
F#|---3---1---1---0---3---1---1---0---------------|
D |---0---0---0---0---0---0---0---0---------------|
A |---4---2---2---0---4---2---2---0---------------|
D |---4---2---2---0---4---2---2---0---------------|

I grew up in one hell of a family
You'd envy us alright
All three girls are looking for trouble 
But we came home every night

[Chorus]
D |---0---0---0---0---0---0---0---0---------------|
A |---0---0---0---0---0---0---0---0---------------|
F#|---0---3---1---0---0---3---1---0---------------|
D |---0---0---0---0---0---0---0---0---------------|
A |---5---4---2---0---5---4---2---0---------------|
D |---5---4---2---0---5---4---2---0---------------|

I don't wanna wear your floral dresses 
And my lips won't be coloured
I don't want your diamond necklace
Your disapproval cuts through 

D |---0---0---0---0---0---0---0---0---0---0---0---|
A |---0---0---0---0---0---0---0---0---0---0---0---|
F#|---0---1---3---0---0---0---0---3---1---1---0---|
D |---0---0---0---0---0---0---0---0---0---0---0---|
A |---0---2---4---9---7---4---5---4---2---2---0---|
D |---0---2---4---9---7---4---5---4---2---2---0---|

I see the way you look at me
You don't have to tell me

[Instrumental]
D |---0---0---0---0---0---------------------------|
A |---0---0---0---0---0---------------------------|
F#|---0---3---1---1---0---------------------------|
D |---0---0---0---0---0---------------------------|
A |---0---4---2---2---0---------------------------|
D |---0---4---2---2---0---------------------------|

[Verse]
D |---0---0---0---0---0---0---0---0---------------|
A |---0---0---0---0---0---0---0---0---------------|
F#|---3---1---1---0---3---1---1---0---------------|
D |---0---0---0---0---0---0---0---0---------------|
A |---4---2---2---0---4---2---2---0---------------|
D |---4---2---2---0---4---2---2---0---------------|

I'm growing older each passing day
But my heart still remains
I bet you thought I'd grow out of these habits
Forgive me for missing

[Chorus]
D |---0---0---0---0---0---0---0---0---------------|
A |---0---0---0---0---0---0---0---0---------------|
F#|---0---3---1---0---0---3---1---0---------------|
D |---0---0---0---0---0---0---0---0---------------|
A |---5---4---2---0---5---4---2---0---------------|
D |---5---4---2---0---5---4---2---0---------------|

I don't wanna wear your floral dresses 
And my lips won't be coloured
I don't want your diamond necklace
Your disapproval cuts through 

D |---0---0---0---0---0---0---0---0---0---0---0---0---0---0---0---0---0---|
A |---0---0---0---0---0---0---0---0---0---0---0---0---0---0---0---0---0---|
F#|---0---1---3---0---0---0---0---3---1---0---0---0---0---3---1---1---0---|
D |---0---0---0---0---0---0---0---0---0---0---0---0---0---0---0---0---0---|
A |---0---2---4---9---7---4---5---4---2---9---7---4---5---4---2---2---0---|
D |---0---2---4---9---7---4---5---4---2---9---7---4---5---4---2---2---0---|

'Cause I see the way you look at me 
I see the way you look at me 
You don't have to tell me
Suggest correction
Creating personal tab
Creating personal tab
You can edit any tab online and save it as your Personal.

You can edit, replace or remove any tab part or add personal notes – all changes will be seen only by you.

Personal tabs can be accessed anytime from any device, even offline.
Learn more »
Give kudos to tab author, rate the tab!
1 2 3 4 5
comments
print report bad tab
guest
You may want to rate the tab now too:
select rating
Wanna post a correction for this tab? Suggest correction