Oops, an error
Loading. Please wait.

Gamble tab

22,140 views 81 this week
4 commentsread comments
1 2 3 4 5
x 15
add to favorites
×
Save as Personal and add changes to this tab that will be seen only by you. Learn more ›
×
You can save this tab as Personal to edit and correct it or add notes. All changes will be seen only by you. Learn more »
launch autoscroll
font size
0
reset
how to read this tab
guitar tuner
edit
Autoscroll
slow
fast
+/-
esc
set tempo
stop
Artist: Lucy Rose 
Song: Gamble 
Tabbed By: Rasharde 
Tuning Open D: DADF#AD


[Intro]
Andante=Walking Pace 

D |------------------------------|------------------------------|
A |----0-0--0--0--0--0-0-0-0-0-0-|---0-0--0--0--0-0-0-0-0-0-0---|
F#|---0-0--0--0--0--0-0-0-0-0-0--|--0-0--0--0--0-0-0-0-0-0-0----|
D |------------------------------|-5----------------------------|
A |--5----7--3--2----------------|-5----7-3--9------------------|
D |------------------------------|------------------------------|

 
D |------------------------------|------------------------------|
A |---0-0--0---0--0--0-0-0-0-0-0-|---0-0--0--0--0--0-0-0-0-0-0--|
F#|--0-0--0---0--0--0-0-0-0-0-0--|--0-0--0--0--0--0-0-0-0-0-0---|
D |------------------------------|------------------------------|
A |-9----7--10--9----------------|-2--4-5-----------------------|
D |------------------------------|------------------------------|


[Verse]

I will take all                   The blame this time

D |------------------------------|------------------------------|
A |----0-0--0--0--0--0-0-0-0-0-0-|---0--0--0--0-0-0-0-0-0-0-----|
F#|---0-0--0--0--0--0-0-0-0-0-0--|--0--0--0--0-0-0-0-0-0-0------|
D |------------------------------|------------------------------|
A |--5----7--3--2----------------|-5----7-3--9------------------|
D |------------------------------|------------------------------|
 
Cause it was my fault               And you were kind

D |-------------------------------|-----------------------------|
A |----0--0--0--0-0-0-0-0-0-------|---0-0--0--0--0--0-0-0-0-0-0-|
F#|---0--0--0--0-0-0-0-0-0--------|--0-0--0--0--0--0-0-0-0-0-0--|
D |-------------------------------|-----------------------------|
A |--9--7--10--9------------------|-2-4--5----------------------|
D |-------------------------------|-----------------------------|

   
[Pre-Chorus]

D |------------------------------|------------------------------|
A |----0-0--0--0--0--0-0-0-0-0-0-|---0-0--0--0--0-0-0-0-0-0-0---|
F#|---5-5--5--5--5--5-5-5-5-5-5--|--5-5--5--5--5-5-5-5-5-5-5----|
D |------------------------------|------------------------------|
A |------------------------------|------------------------------|
D |--5---------------------------|-5----------------------------|


[Chorus] x2 

D |----------------------------------------|     
A |----0-0-0-0--0-0-0-0--0-0-0-0--0-0-0-0--|
F#|---0-0-0-0--0-0-0-0--0-0-0-0--0-0-0-0---|
D |----------------------------------------|
A |----------------------------------------|
D |--4--------5---------7-------9----------|

shouldn't do...

D |---------------------|    
A |----5-5-5-5--5-5-5-5-|
F#|---0-0-0-0--0-0-0-0--|
D |---------------------|
A |---------------------|
D |--5------------------|

It's on my mind...

D |-----------------------------|
A |---0--0--0--0-0-0-0-0-0------|
F#|--0--0--0--0-0-0-0-0-0-------|
D |-----------------------------|
A |-----------------------------|
D |-2-4--5----------------------|

[Back to Verse Tab]
(Continue in Andante) 

I will just leave
Cause no more pain
Cause I brought this on
Cause you were kind

[Back to Chorus Tab]
(Continue in Andante) 

Cause now I'm searching for a reason
To believe that I'm something
Cause I don't gamble like I used to
But I still do things that I shouldn't do
That I shouldn't do

[Back to Its on my mind]
(Continue in Andante)

It's on my mind
And it's on my mind

(Continue in Andante)

Cause you said to me, Can't we work it out? 

D |----------------------------------------|     
A |----0-0-0-0--0-0-0-0--0-0-0-0--0-0-0-0--|
F#|---0-0-0-0--0-0-0-0--0-0-0-0--0-0-0-0---|
D |----------------------------------------|
A |----------------------------------------|
D |-12-----------------7-------------------|


Won't you talk to me? What's this all about? 

D |---------------------------------------|     
A |---0-0-0-0--0-0-0-0--0-0-0-0--0-0-0-0--|
F#|--0-0-0-0--0-0-0-0--0-0-0-0--0-0-0-0---|
D |---------------------------------------|
A |---------------------------------------|
D |-5-----------------5-------------------|

(4x)


[Outro]

D |------------------------------|------------------------------|
A |----0-0--0--0--0--0-0-0-0-0-0-|---0-0--0--0--0-0-0-0-0-0-0---|
F#|---0-0--0--0--0--0-0-0-0-0-0--|--0-0--0--0--0-0-0-0-0-0-0----|
D |------------------------------|-5----------------------------|
A |--5----7--3--2----------------|-5----7-3--9------------------|
D |------------------------------|------------------------------|

_____________________________|   Ritardando espressione = Slow down expessivley
D |------------------------------|------------------------------|
A |---0-0--0---0--0--0-0-0-0-0-0-|---0-0--0(rings on)-----------|
F#|--0-0--0---0--0--0-0-0-0-0-0--|--0-0--0(rings on)------------|
D |------------------------------|------------------------------|
A |-9----7--10--9----------------|-2--4-5-----------------------|
D |------------------------------|------------------------------| 
Suggest correction
Creating personal tab
Creating personal tab
You can edit any tab online and save it as your Personal.

You can edit, replace or remove any tab part or add personal notes – all changes will be seen only by you.

Personal tabs can be accessed anytime from any device, even offline.
Learn more »
comments
print report bad tab
4 comments total. Showing first comments.
+5 reply
Sinatra Blue 53 Oct 02, 2012 06:54 PM

love it! just one difference, i think instead of:
D |------------------------------|------------------------------|
A |----0-0--0--0--0--0-0-0-0-0-0-|---0-0--0--0--0-0-0-0-0-0-0---|
F#|---0-0--0--0--0--0-0-0-0-0-0--|--0-0--0--0--0-0-0-0-0-0-0----|
D |------------------------------|-5----------------------------|
A |--5----7--3--2----------------|-5----7-3--9------------------|
D |------------------------------|------------------------------|
it should be
D |------------------------------|------------------------------|
A |----0-0--0--0--0--0-0-0-0-0-0-|---0-0--0--0--0-0-0-0-0-0-0---|
F#|---0-0--0--0--0--0-0-0-0-0-0--|--0-0--0--0--0-0-0-0-0-0-0----|
D |------------------------------|-5----------------------------|
A |--5----7--4--2----------------|-5----7-4--9------------------|
D |------------------------------|------------------------------|

other than that, good job!

+1 reply
rasharde1995 26 Oct 10, 2012 02:44 AM

sorry that what it should of been i accidently but 3 instead of 4 x_x

0 reply
İpek Sandık?ı 163 Feb 13, 2014 08:56 AM

really thanks :))

guest
Wanna post a correction for this tab? Suggest correction