Oops, an error
Loading. Please wait.

Night Bus tab

version 1
version 1

Whole song

28,357 views 51 this week
18 commentsread comments
1 2 3 4 5
x 21
add to favorites
×
Save as Personal and add changes to this tab that will be seen only by you. Learn more ›
×
You can save this tab as Personal to edit and correct it or add notes. All changes will be seen only by you. Learn more »
launch autoscroll
font size
0
reset
how to read this tab
guitar tuner
edit
Autoscroll
slow
fast
+/-
esc
set tempo
stop
Author
Difficulty
Tuning: Standard

[Intro] (x8)
e|-------------------------------------|
B|-------------------------------------|
G|----------9------9-----9-----9-------|
D|----------9------9-----9-----9-------|
A|-------7-----7------7-----7----------|
E|-------------------------------------|
         E5

[Verse] (x4)    
         E5                                    Esus2
|-------------------------------------|------------------------------------|
|-------------------------------------|------------------------------------|
|----------9-----9-----9-------9------|---------9-----9------9-----9-------|
|----------9-----9-----9-------9------|---------9-----9------9-----9-------|
|-------------------------------------|-------0-----0------0-----0---------|
|-------9------9-----9------9---------|------------------------------------|
         C#m7                                  Esus4               

[Pre-Chorus]
e|------------------------------------|
B|------------------------------------|
G|--------9------9-------9-------9----| 
D|--------9------9-------9-------9----|
A|-----0-------0------0-------0-------|
E|------------------------------------|
       Esus4
                                   
[Chorus]
e|-------------------------------------|-------------------------------------|
B|-------------------------------------|-------------------------------------|
G|----------9------9-----9-----9-------|---------9-----9------9-----9--------|
D|----------9------9-----9-----9-------|---------9-----9------9-----9--------|
A|-------7-----7------7-----7----------|-------9-----9-----9-----9-----------|
E|-------------------------------------|-------------------------------------|        
         E5                                    Esus2
                                           
     
e|-------------------------------------|------------------------------------ |
B|-------------------------------------|------------------------------------ |
G|----------9-----9-----9-------9------|---------9-----9------9-----9-------:|
D|----------9-----9-----9-------9------|---------9-----9------9-----9-------:|
A|-------------------------------------|------------------------------------ |
E|-------9------9-----9------9---------|-------9-----9------9-----9--------- |

         C#m7                                 
e|------------------------------------|
B|------------------------------------|
G|---------9-----9------9-----9-------|
D|---------9-----9------9-----9-------|
A|------------------------------------|
E|-------7-----7------7-----7---------|
                                           
[Interlude]
e|-------------------------------------|-------------------------------------|
B|----------------5--------------------|----------------5--------------------|
G|----------------6--------------------|----------------6--------------------|
D|----------7----------7---------------|----------7----------7---------------|
A|-----7-------------------7--------7--|-----7-------------------7-------7---|
E|-5---------------------------5-------|-5---------------------------5-------|
   A                                     A
                                                      
                                                      |-Strum, hold 2 beats--| 
e|-------------------------------------|------------------0------------------|
B|----------------0--------------------|------------------0------------------|
G|----------------6--------------------|------------------6------------------|
D|-----------7---------7---------------|------------7------------------------|
A|------7------------------7--------7--|-------7-----------------------------|
E|-5---------------------------5-------|---5---------------------------------|
   Aadd2                                   Aadd2

(I changed the interlude slightly, Lucy uses about the same picking pattern,
but uses the 6,4,3,2,1 strings, instead of 6,5,4,3,2, and stays on A, 
without switching to Aadd2.)
                                    
[Bridge]
e|-------------------------------------|-------------------------------------|
B|-------------------------------------|-------------------------------------|
G|-----9-------9------9-------9--------|------9-------9------9-------9-------| (x3)
D|-----9-------9------9-------9---x4---|------9-------9------9-------9--x4---|
A|---7-------7------7-------7----------|-------------------------------------|
E|-------------------------------------|----9-------9------9-------9---------|
     E5                                    C#m7

[Bridge/Outro]
e|-------------------------------------|-------------------------------------|
B|-------------------------------------|-------------------------------------|
G|-----9-------9------9-------9--------|------9-------9------9-------9-------|
D|-----9-------9------9-------9---x4---|------9-------9------9-------9--x4---|
A|---7-------7------7-------7----------|----0-------0------0-------0---------|
E|-------------------------------------|-------------------------------------|
     E5                                     Esus4

[Interlude/outro]        
(The outro is just the interlude repeated, and the song ends with a strummed A chord, 
or if you used my variation, Aadd2.)                                     
(LONG AWAITED SECOND GUITAR LINE FROM BEGINNING OF SONG (very sorry)
This is NOT how the second guitarist plays it, he plays more on the B string, but I think
that with pull offs and such this is probably easier.)
(Strong syncopation and eighth note feel 
(think stomp clap stomp clap stomp clap stomp clap like in a country hoedown)

  1    +    2    +    3    +    4    +  1    +    2    +    3    +    4    +
e|7---p0---------4---------p0--------0-|2---/4--------p0---------0----0----0-|
B|-------------------------------------|-------------------------------------|
G|-------------------------------------|-------------------------------------|
D|-------------------------------------|-------------------------------------|
A|-------------------------------------|-------------------------------------|
E|-------------------------------------|-------------------------------------| 
                                       
                                       (This is more like strummed eighth notes)
                                       |<----------------------------------->|
  1    +    2    +    3    +    4    +  1    +    2    +    3    +    4    +
e|4---p0---------2--------p0---------0-|0----0----0---------0---------0------|
B|-------------------------------------|2----2---/4--------/5---------5------|
G|-------------------------------------|-------------------------------------|
D|-------------------------------------|-------------------------------------|
A|-------------------------------------|-------------------------------------|
E|-------------------------------------|-------------------------------------|

                                     (This is more like strummed eighth notes)
                                    |<-------------------------------------->|
  1    +    2    +    3    +    4    +  1    +    2    +    3    +    4    +
e|7---p0---------4--------p0-----------|-----0---------0---------0----0------|
B|-----------------------------------7-|----------7--------------------------|
G|-------------------------------------|-------------------------------------|
D|-------------------------------------|-------------------------------------|
A|-------------------------------------|-------------------------------------|
E|-------------------------------------|-------------------------------------|

  1    +    2    +    3    +    4    +  1    +    2    +    3    +    4    +
e|4---p0---------2--------p0---------0-|0--------------0--------------0------|
B|-------------------------------------|2-------------/4-------------/7------|
G|-------------------------------------|-------------------------------------|
D|-------------------------------------|-------------------------------------|
A|-------------------------------------|-------------------------------------|
E|-------------------------------------|-------------------------------------|

  1    +    2    +    3    +    4    +  
e|-0-----------------------------------|
B|/9-----------------------------------|
G|-------------------------------------|
D|-------------------------------------|
A|-------------------------------------|
E|-------------------------------------|



************************************

| x  Dead note
| p  Pull-off
| /  Slide up

************************************

            
            
Suggest correction
Creating personal tab
Creating personal tab
You can edit any tab online and save it as your Personal.

You can edit, replace or remove any tab part or add personal notes – all changes will be seen only by you.

Personal tabs can be accessed anytime from any device, even offline.
Learn more »
comments
print report bad tab
18 comments total. Showing first comments.
+4 reply
franzyrory 12 Nov 25, 2011 04:35 PM

this is perfect :)
if you could do the second guitar from WLT, that would be just great
thanks :D

+1 reply
!oreos! 62 Jan 07, 2012 08:15 AM

I second all of that comment :)

+1 reply
IndieChic 30 Mar 02, 2012 12:24 PM

I third that comment :)

guest
You may want to rate the tab now too:
select rating
Wanna post a correction for this tab? Suggest correction