Oops, an error
Loading. Please wait.

Place Tab

version 1
version 1

Whole song

7,560 views 30 this week
2 commentsread comments
1 2 3 4 5
accurate
x 4
add to favorites
launch autoscroll
font size
0
reset
how to read this tab
guitar tuner
Tab Pro tools
  • play this tab
  • loop segment
  • change instrument
  • show fretboard
  • metronome
×
Best way to learn
"Place"
Autoscroll
slow
fast
+/-
esc
set tempo
stop
Contributor
Capo
4th fret
-------------------------------------------------------------------------------
                             Place (Acoustic) - Lucy Rose
-------------------------------------------------------------------------------
Tabbed by: Roger of Rohan
E-mail: roger at rogerhub.com

This is based off her acoustic version:
http://www.youtube.com/watch?v=xcWANb9nlUg

Tuning: DADF#BD + Capo 4

(Basically, Drop D, keep 5th and 4th strings on standard, and apply 1 and 2
 flats to the 3rd and 1st strings respectively.)

Intro and Verse
 D|--------------|--------------|----------------------|
 B|---------0----|--------------|-------0---------0----|
F#|-------0---0--|--------------|-----0---0-----0---0--|
 D|--------------|--------------|----------------------|
 A|-2------------|-5------0-----|----------------------|
 D|--------------|--------------|--5---------2---------|

(Variations on fingering)
 D|--------------|--------------|----------------------|
 B|---------0----|--------------|-------0---------0----|
F#|-------0---0--|--------------|-----0---0-----0---0--|
 D|--------------|--------------|----------------------|
 A|-0h2----------|-5------0-----|----------------------|
 D|--------------|--------------|--5-------4/2---------|

Transition from verse to chorus
 D|---------------|-----------------|-0-----|-----|
 B|---------------|-----------------|-0-----|-----|
F#|---------------|-----------------|-0-----|-----|
 D|---------------|-----------------|-X-----|-----|  (x2)
 A|-2-------5-----|-7-------9-------|-5-----|-----|
 D|---------------|-----------------|-5-----|-----|

Chorus and Bridge
(Strum accordingly)

 D|-0---|-0---|-0---|                      |-0---|
 B|-0---|-0---|-0---|                      |-0---|
F#|-0---|-0---|-0---|                      |-0---|
 D|-x---|-x---|-x---|                      |-x---|
 A|-9---|-5---|-2---| with an occasional   |-7---|
 D|-9---|-5---|-2---|                      |-7---|

The order of these chords goes something like:

|9   |9   |5 2 |5 2 |

Watch the video for clarification (it shows her fingering very clearly, haha).
The bridge also uses the fourth chord (77X000).

I really liked the emotional intensity of this song, and I hope
that you will too. Have fun, and please leave a comment if you have
any corrections.
comments
print report bad tab
2 comments total.
0 reply
sejson wrote on October 20 2013, 12:38 pm

I think it should be like this on the intro:

Intro and Verse
D|--------------|--------------|----------------------|
B|---------0----|--------------|-------0---------0----|
F#|-------0---0--|--------------|-----0---0-----0---0--|
D|--------------|--------------|----------------------|
A|-2------------|-5------0-----|----------------------|
D|--------------|--------------|--3---------0---------|

0 reply
sejson wrote on October 20 2013, 12:48 pm

And:

Intro and Verse
D|--------------|--------------|----------------------|
B|---------3----|--------------|-------3---------3----|
F#|-------4---4--|--------------|-----4---4-----4---4--|
D|--------------|--------------|----------------------|
A|-2------------|-5------0-----|----------------------|
D|--------------|--------------|--3---------0---------|

I want to post or [tab]
guest
You may want to rate the tab now too:
select rating
Please do not post tabs as comments. Select "correction" instead!