Oops, an error
Loading. Please wait.

Shiver tab

version 1
version 1

Whole song

55,632 views 132 this week
6 commentsread comments
1 2 3 4 5
x 12
add to favorites
×
Save as Personal and add changes to this tab that will be seen only by you. Learn more ›
×
You can save this tab as Personal to edit and correct it or add notes. All changes will be seen only by you. Learn more »
launch autoscroll
font size
0
reset
how to read this tab
guitar tuner
edit
Autoscroll
slow
fast
+/-
esc
set tempo
stop
Author
Okay, so this is my first tab but I'm pretty sure it's accurate because I asked Lucy Rose.

The song is in the tuning E A D Fb A D and the Capo is on 7.

(I don't know what the names of those chords would be so I've named them A1 and 2)


D |--0--------0--------5--------5--------|
A |--0--------0--------5--------5--------|
Fb|--0--------1--------5--------5--------|
D |--0--------2--------5--------5--------|
A |--2--------2--------5--------7--------|
E |--3--------0--------7--------5--------|
     
     G        E        A1       A2


G       E 

    We broke
A1
Everything that was right
A2
We both enjoyed a good fight
G           E
   And we sold / [solved]
A1
All the holes we had to [bleed]/[breathe] 
A2                          G
To make the other one leave 


       E        A1               A2     G
And I love the way you looked at me
       E        A1              A2
And I miss the way you made me feel
       G
When we're alone
       G
When we're alone

E                            A1      A2
And I shiver like I used to
E                            A1       A2
And I leave him just for you
E                            A1        A2
And I shiver like I used to      

Just for you
Like I used to

D |--0--------0--------0--------0--------0--------|
A |--0--------0--------0--------0--------0--------|
Fb|--8--------0--------5--------4--------3--------|  x2   This is played 
D |--0--------7--------0--------0--------0--------|       twice over the last
A |--0--------0--------0--------0--------2--------|       two lines
E |--7--------5--------3--------2--------0--------|       of the chorus


And repeat for the rest

And we stole
Every moment we had to make the other one feel bad
And we hoped that we could be what we knew 
We'd never turn out to be real

And I love the way you looked at me
And I miss the way you made me feel 
When we're alone
When we're alone

And I shiver like I used to
And I leave him just for you
And I shiver like I used to
Just for you      


G          E             A1

And if we turn back time
           A2
Could we learn to live life

And if we turn back time
Could we learn to live life
And if we turn back time
Could we learn to live life
And if we turn back time
Could we learn 

And I shiver like I used to
And I leave him just for you
And I shiver like I used to
Just for you

Like I used to

That's pretty much it :)

            
            
Suggest correction
Creating personal tab
Creating personal tab
You can edit any tab online and save it as your Personal.

You can edit, replace or remove any tab part or add personal notes – all changes will be seen only by you.

Personal tabs can be accessed anytime from any device, even offline.
Learn more »
comments
print report bad tab
6 comments total. Showing first comments.
0 reply
rasharde1995 26 Feb 02, 2012 07:21 AM

A1= Gsus2/A
A2= G6sus2

+3 reply
harrytheblurfan 221 May 09, 2012 02:23 PM

I think the tuning is actually EADF#Ad and after watching her play on YouTube the chords I'm pretty sure are like this:

D |--0--------0--------0--------0--------|
A |--0--------0--------0--------0--------|
F#|--0--------1--------0--------0--------|
D |--0--------2--------0--------0--------|
A |--2--------2--------5--------7--------|
E |--3--------0--------7--------5--------|

And the second part I think is:

D |--0--------0--------0--------0--------0--------|
A |--0--------0--------0--------0--------0--------|
F#|--8--------0--------5--------0--------3--------| x2
D |--0--------7--------0--------4--------0--------|
A |--0--------0--------0--------0--------2--------|
E |--7--------5--------3--------2--------0--------|

0 reply
helltoupe 10 Feb 05, 2013 08:31 PM

harrytheblurfan, i think you're right. "Fb" makes no sense, unless it's another way to notate "E", which would not sound right.

guest
You may want to rate the tab now too:
select rating
Wanna post a correction for this tab? Suggest correction