Oops, an error
Loading. Please wait.

Rockcliffe Bay Tab

1,588 views 3 this week
2 commentsread comments
1 2 3 4 5
x 5
add to favorites
launch autoscroll
font size
0
reset
how to read this tab
guitar tuner
Autoscroll
slow
fast
+/-
esc
set tempo
stop
Help us to improve Ultimate-Guitar.com Take our survey!
×
Difficulty
Capo
novice
4th fret
Hey guys its Censored coming back with a fresh tab from the one and only Lucy spraggan. 
This is a song she did with Ont'sofa.com
Tabs 100% any questions or comments shoot me a message at andydowdy123@hotmail.com


Capo on 4th Fret
Normal tuning


Main verse.
                                               Strum
E------------------------------------------------2--------|
B--0-3---0--------1-1-0-------1-0---0------------1--------|
G----------2------------0-----0-0------0---------2--------|
D------------0------------0---------------2------0--------|
A-----------------2-2-2-------0-0-------------------------|
E--3------------------------------------------------------|

chorus is just the basic shapes strummed. if you dont know what those are:

   G  ?    ?    D variant
e--3--0----0----2-----|
b--3--2p0--1----1-----|
g--0--0----0----2-----|
d--0--0----2----0-----|
a--2--2---------------|
e--3--x---------------|

Thanks for "tuning in."
Suggest correction
comments
print report bad tab
2 comments total.
0 reply
Nosnip 139 Jun 07, 2014 04:21 AM, edited at 04:22 am

StrumE--------------------------------------------------2------|B--0-3---0----------1-----0--------1-----0---------1------|G----------2--0-------0-----0-------2------0-------2------|D----------------0------2-----2-------2-------2-----0-----|A-------------------3--------------0----------------------|E--3------------------------------------------------------|and then the chords are more like G C G Am DHe said freedom was mine for one last time when I was sailing along those waves

0 reply
Nosnip 139 Jun 07, 2014 04:22 AM

Strum
E--------------------------------------------------2------|
B--0-3---0----------1-----0--------1-----0---------1------|
G----------2--0-------0-----0-------2------0-------2------|
D----------------0------2-----2-------2-------2-----0-----|
A-------------------3--------------0----------------------|
E--3------------------------------------------------------|

and then the chords are more like
G C G Am D
He said freedom was mine for one last time when I was sailing along those waves

guest
You may want to rate the tab now too:
select rating
Wanna post a correction for this tab? Suggest correction