Oops, an error
Loading. Please wait.

Amanece Tab

47 views 1 this week
no commentswrite comment
1 2 3 4 5
3 more votes to show rating
add to favorites
launch autoscroll
font size
0
reset
how to read this tab
guitar tuner
×
Best way to learn
"Amanece"
Autoscroll
slow
fast
+/-
esc
set tempo
stop
Tienen que poner un efecto de reverb para que se escuche el 
eco de la guitarra. No se si las notas mas altas estaran 
buenas ya que esta tablatura la hize tocando una acustica de
18 espacios =P, cualquier arreglín lo mandan al mail porfa!
      

E------------------------------------------------------------
B------------------------------------------------------------
G------------------------------------------------------------
D------------------------------------------------------------
A-----8-7-----------------8-7---7-8--------------------------
E--7-5----7-8-10--5/3--7-5---7-5-----14h15--14-12--5/3-------


Desentierrame, adivina mis sueños


E------------------------------------------------------------
B------------------------------------------------------------
G------------------------------------------------------------
D--9---------------------------------------------------------
A------10----------------------------------------------------
E-----------12----7-7---------------3-3----------------------
   Y permiteme,      en tu espalda     rasguidos


E------------------------------------------------------------
B------------------------------------------------------------
G------------------------------------------------------------
D--9---------------------------------------------------------
A------10----------------------------------------------------
E-----------12--------------------15--14-12--5/3-------------
               Que en todo amanece


E------------------------------------------------------------
B------------------------------------------------------------
G------------------------------------------------------------
D--9---------------------------------------------------------
A------10--------------------------------------15------------
E-----------12--------------------12p15--14-12-----17/19-19--
               Que en todo amanece


E------------------------------------------------------------
B------------------------------------------------------------
G------------------------------------------------------------
D-----------------------------12-----------------------------
A-------------------------------13---------------------------
E-12-----------------------12-----12------------------3p7-0p14
    No siempre es facil avanzar    Cuando comienza a calentar


E------------------------------------------------------------
B------------------------------------------------------------
G------------------------------------------------------------
D------------------------------------------------------------
A----8-7---8-7---8-7---7-8---7-8---7-8---8-7---7-8---7-8---7-8
E-7-5---7-5---7-5---7-5---7-5---7-5---7-5---7-5---7-5---7-5--


E------------------------------------------------------------
B------------------------------------------------------------
G------------------------------------------------------------
D------------------------------------------------------------
A------------------------------------------------------------
E-----------------7-----------3------------------------------
   Al moverte,     ten claro   el sentido


E------------------------------------------------------------
B------------------------------------------------------------
G------------------------------------------------------------
D--9---------------------------------------------------------
A------10----------------------------------------15----------
E-----------12-----------------------12p15--14-12-----17/19-22
               Que en ti todo amanece


E------------------------------------------------------------
B------------------------------------------------------------
G------------------------------------------------------------
D-12----------------------------12--------------------------
A---13----------------------------13------------------------
E-----12----------------------3p7- -12------------------3p7-
      No siempre es facil avanzar   Cuando comienza a calentar


E------------------------------------------------------------
B------------------------------------------------------------
G------------------------------------------------------------
D------------------------------------------------------------
A------------------------------------------------------------
E--10p14-----------------------------------------------------
	El sol...
Suggest correction
Give kudos to tab author, rate the tab!
1 2 3 4 5
comments
print report bad tab
guest
You may want to rate the tab now too:
select rating
Wanna post a correction for this tab? Suggest correction