Oops, an error
Loading. Please wait.

Como Un Cristal Tab

14 views 1 this week
no commentswrite comment
1 2 3 4 5
3 more votes to show rating
add to favorites
launch autoscroll
font size
0
reset
how to read this tab
guitar tuner
×
Best way to learn
"Como Un Cristal"
Autoscroll
slow
fast
+/-
esc
set tempo
stop
esto es solo para agregar unas cositas q no están en
la versión de acordes q subio hugo

intro
  Am     G    F    G        Am      G     F   Bb
e|-------------------------|-----------------------|
B|-------------------------|-----------------------|
G|---4-5/7b-5-7-5----------|----4-5/7b-5-7-5----5--|
D|-7-------------7-7-5-3-2-|--7-------------7-8---7|
A|-------------------------|-----------------------|
E|-------------------------|-----------------------|

  Am    G    Dm    Em    Am  G     F  G   Am
e|---------------------------|------------------------|
B|-------------------5-6-5-5-|--8-6-5-5---------------|
G|----4-5/7b-5-7-5-7---------|5---------5-4-5-4-2-----|
D|--7------------------------|------------------------|
A|---------------------------|------------------------|

[b = (bending) levantar y bajar cuerda ]

y en el final solo juega con el Fa de este modo

F-F*...repetir
F

  F*
e|----|    |---|
B|----|    |-6-|
G|-10-| ó  |-5-|
D|-10-|    |-3-|
A|-8--|    |---|
E|----|    |---|
Suggest correction
Give kudos to tab author, rate the tab!
1 2 3 4 5
comments
print report bad tab
guest
You may want to rate the tab now too:
select rating
Wanna post a correction for this tab? Suggest correction