Oops, an error
Loading. Please wait.

De Sudor Y Ternura Bass Tab

62 views 3 this week
no commentswrite comment
1 2 3 4 5
3 more votes to show rating
add to favorites
launch autoscroll
font size
0
reset
guitar tuner
Autoscroll
slow
fast
+/-
esc
set tempo
stop
Help us to improve Ultimate-Guitar.com Take our survey!
×
Muy fácil y simple

Verso (bajo entra despues del 1er verso)
|-----------------------------------------------------------------|
|-----------------------------------------------------------------|
|-5-5-555--------5-5-555--------3-3-333/7-77-777-3-3-333/7-77-777-|
|--------2-22-222-------2-22-222----------------------------------|

Coro
|-----------------------------------------------------------------|
|---7---7---7---7-------------------5---5---5---5-----------------|
|-55-555-555-555-5--5---5---5---5-33-333-333-333-3--7---7---7---7-|
|-----------------33-333-333-333-3----------------55-555-555-555--|
Suggest correction
Give kudos to tab author, rate the tab!
1 2 3 4 5
comments
print report bad tab
guest
You may want to rate the tab now too:
select rating
Wanna post a correction for this tab? Suggest correction